rock
 
|tablatures   |lyrics   |discussion forums   |more tabs @ XGuitar.com

311 tabs

Dont Tread On Me bass tab

"Dont Tread On Me"
From the album Dont Tread on Me
Performed by PNut of 311

Intro
G------------------------------------------------
D------------------------------------------------
A------------------------------------------------
E-5-------3-------1--------0--------3------------


G---------------------------------------------------------\\
D--------------------------------------------------------- \\
A-3-x-x-x---3----x-x-x---3------------2------------2------  \\
E---------3------------3------x-x-x-x---0----0-x-x---0----   \\
                                                             x2
G---------------------------------------------------------   //
D---------------------------------------------------------  //
A---------------------------------3--------------0h2------ //
E-5-5-5-0-5----5-5-5-0-5----1-1-1---1----1--1-1h3---------//

G---------------------------------------------------------
D---------------------------------------------------------
A---------------------------------5------------5----------
E-5-5-5-0-5----5-5-5-0-5----3-3-3---3----3-3-3---3-------- x2

G-------------------------------------------------
D-------------------------------------------------
A-------3------------3-------------------5--------
E-1-1-1---1----1-1-1---1--------0-----------------


G--------------------------------------------------------
D--------------------------------------------------------
A-x-x-x-x---3----x-x-x---3----------2------------2-------
E---------3------------3------x-x-x---0----x-x-x---0-----

G--------------------------------------------------------
D--------------------------------------------------------
A---------------------------------3-------------0h2------
E-5-5-5-0-5----5-5-5-0-5----1-1-1---1----1-1-1h3---------


G---------------------------------------------------------
D---------------------------------------------------------
A---------------------------------5------------5----------
E-5-5-5-0-5----5-5-5-0-5----3-3-3---3----3-3-3---3-------- x2

G---------------------------------------------------------
D---------------------------------------------------------
A-------3------------3------------------------------------
E-1-1-1---1----1-1-1---1-----7------5------3------2-------

G---------------------------        G---------      \\
D---------------------------        D---------       \\ x2
A---------------------------        A---0/2---       //
E-5--5--3/5--5--1--1-1--3--- x3     E-0------- x3   //


G--------------------------------------------------------
D--------------------------------------------------------
A-x-x-x-x---3----x-x-x---3----------2------------2-------
E---------3------------3------x-x-x---0----x-x-x---0----- \\
                                                            x2
G-------------------------------------------------------- //
D--------------------------------------------------------
A---------------------------------3-------------0h2------
E-5-5-5-0-5----5-5-5-0-5----1-1-1---1----1-1-1h3---------

Bass Solo
G------------------------------------------------------------------------
D------------------------------------------------------------------------
A-0--0--0-2-3-2--0--0--0-2-3-2------------5--5-2----------2--2-3---------
E--------------------------------3--3--3-----------1--1-1----------------  x2


G--------------------------------------------------------
D--------------------------------------------------------
A-x-x-x-x---3----x-x-x---3----------2------------2-------
E---------3------------3------x-x-x---0----x-x-x---0----- \\
                                                            x2
G-------------------------------------------------------- //
D--------------------------------------------------------
A---------------------------------3-------------0h2------
E-5-5-5-0-5----5-5-5-0-5----1-1-1---1----1-1-1h3---------

Outro (maybe)
G----------------------
D----------------------
A----------------------
E-1----1----3----0-----
(i think the last note is lower than an E)
  development and support by
dmitry ivanov