rock
 
|tablatures   |lyrics   |discussion forums   |more tabs @ XGuitar.com

Bad Religion tabs

1000 Memories bass tab

Artist: Bad Religion
Song: 1000 Memories
Album: New America
Instrument: Bass
Tuning: Standard
Tabbed by: Spidey255

Intro
G|------|---------------------|
D|------|---------------------|
A|-8-6~-|-----------3333------|
E|------|-4444-6666------1111-|

Chorus
G|--------------------|--------------------|-------------------------------------|
D|--------------------|--------------------|-------------------------------------|
A|--------------------|------6666----------|-33333333----------66666666----------|
E|-4444-6666-88888888-|-4444------66666666-|----------44444444----------66666666-|

Second time play this after the first two parts

G|--------------------|----------|
D|--------------------|----------|
A|-3333---------------|----------|
E|------1111-44444444-|-66666666-|

Post Chorus (You are just a picture whoa!)
G|-----------------|--------------------|---------------------|---------------------------------|
D|-----------------|--------------------|---------------------|---------------------------------|
A|-3-3-3-3---------|------6666----------|------4444------6666-|-2222------4444------66666666----|
E|---------1-1-1-1-|-4444------66666666-|-2222------4444------|------2222------4444----------6~-|

Verse
G|----------------------------|---------------------|----------------------------------------|
D|----------------------------|---------------------|----------------------------------------|
A|---------44444------6-------|-4444------6666------|----------44444444----------66666666----|
E|-6-666-4-------4444---66666-|------4444------6666-|-22222222----------44444444----------6~-|

-chorus
-post chorus
  development and support by
dmitry ivanov