rock
 
|tablatures   |lyrics   |discussion forums   |more tabs @ XGuitar.com

Bad Religion tabs

1000 Memories guitar tab

1000 MEMORIES


Tabbed out by Christopher L. Exner (cexner@pclink.com)


  INTRO CHORDS
    F    D#
e|--------------------
B|--------------------
G|--10---8------------
D|--10---8------------
A|--8----6------------
E|--------------------

  INTRO FILL
e|-----------------------------------------
B|-----------------------------------------
G|-----5--------5------------5-------------
D|-----------------------------------3-----
A|--3-----5h6-------------3-----3--6-------
E|-----------------6-----------------------

  INTRO LEAD(let ring)
e|----------------------------
B|----1-1-1-1-1-1-1-1-1-1-1-1-
G|---5-5-5-5-5-5-5-5-5-5-5-5--
D|----------------------------

  VERSE
   G#   A#   C        D#   G#   A#       C        G#       D#       A#
G|----------------------------------------------------------------------------
D|------3333-55555555-------8888----------55555555----------88888888----------
A|-6666-1111-33333333--6666-6666-88888888-33333333-66666666-66666666-88888888-
E|-4444----------------4444------66666666----------44444444----------66666666-

  PART UNDER INTRO FILL
    C         A#
G|-----------------------
D|--55555555----------3--
A|--33333333-66666666-1--
E|-----------44444444----

  "just a picture..."
   C            F
G|--------------------------
D|--5--5--5--5-------------- x2
A|--3--3--3--3--3--3--3--3--
E|--------------1--1--1--1--

  CHORUS
    G#   D#   A#            F#   C#   G#   D#   B    F#   C#   G#   D#   
D|-------8888----------    ------6666------8888-----------6666------88888888-
A|--6666-6666-88888888- x2 -4444-4444-6666-6666-9999-4444-4444-6666-66666666-
E|--4444------66666666-    -2222------4444------7777-2222------4444----------

  BRIDGE
   A#     G#C#  G#   D#A#      C#  G# D#  A# C#  G#  A#C  A#C  A#C  A#
G|------------------------    ----------------------------------------
D|----------6--------8---- x4 -666----888----666----------------------
A|-8---88-6-4---6-66-6-8--    -444-66-666-88-444-66--8/10\8/10\8/10\8-
E|-6---66-4-----4-44---6--    -----44-----66-----44--6/8-\6/8-\6/8-\6-

  BRIDGE (cont)
   C#  G#  D#  A#  C#  G#  D#     A# F#       C#       G#       D#       A#
G|-------------------------------------------------------------------------
D|-666-----888-----666-----888888-------------66666666----------88888888---
A|-444-66--666-88--444-66--666666-8--44444444-44444444-66666666-66666666-8-
E|-----44------66------44---------6--22222222----------44444444----------6-

e|---------------------------------------------------------------------------|
B|---------------------------------------------------------------------------|
G|---------------------------------------------------------------------------|
D|---------------------------------------------------------------------------|
A|---------------------------------------------------------------------------|
E|---------------------------------------------------------------------------| 

 Anyone in the Twin Cities area wanna jam? E-mail me.


[Document End]
  development and support by
dmitry ivanov