rock
 
|tablatures   |lyrics   |discussion forums   |more tabs @ XGuitar.com

Bad Religion tabs

10 In 2010 bass tab

Bad Religion-10 in 2010
CD-the Gray Race
>-play a lot
h-hammer on
PLEASE RATE THIS TAB!

Intro(play each note real fast)
G-----------------------------------------
D-----------------------------------------
A-12>-11>-10>-9>-8>-7>-6>-5>-4>-3>-2>-1>--
E-----------------------------------------

Verse
G--------------------------------
D--------------------------------
A-3h5-5-5-5—3h5-5-5-5-------3----
E-----------------------6-3---5—-

Chorus
G--------------------------------
D--------------------------------
A-----------3>--5>---------------
E-6>--1>------------6>--1>--5>---

Outro
G------------------------------------------
D------------------------------------------
A------3------------3------------3----5----
E-6-1----5-----6-1----5-----6-1-----5------
  development and support by
dmitry ivanov