rock
 
|tablatures   |lyrics   |discussion forums   |more tabs @ XGuitar.com

Bad Religion tabs

21st Century Digital Boy bass tab

Song Title: 21st Century (Digital Boy)
Artist: Bad Religion
----------------------------------------------

G:--------------------------|	o /|
D:--------------------------|  / |
A:5-5-----------------------| /  |
E:-----x-1-1-x-3-3-x-6-6-5-5|/  0|


G:---------------
D:---------------
A:5-5------------
E:----1-1-5-5-6-6


G:------------
D:------------
A:5-5---------
E:-x-1-1-3-3-x


Please forgive me, this is my first tab and I don't want to figure out the chorus
right now, all though I don't think it would be that hard.

Submitted by:  Noah Harpham (Don't Email me back )
  development and support by
dmitry ivanov