rock
 
|tablatures   |lyrics   |discussion forums   |more tabs @ XGuitar.com

Bad Religion tabs

21st Century Digital Boy guitar chords

21st Century (Digital Boy)


Tabbed out by Alexander T (livingfortoday@garbage.com)


MAIN:

-----------------|
-----------------|
-----------------|
-7-7-------------|	X2
-5-5-3-3-5-5-8-7-|
-0-0-1-1-3-3-6-5-|
I don't believe it...

-------------------------------|
-------------------------------|
-------------------------------|
-7-7---------------7-7---------|
-5-5-3-3-10-10-5-5-5-5-3-3-7-7-|
-0-0-1-1--8--8-3-3-0-0-1-1-5-5-|
like a trampled flag...

CHORUS:

-----------------|
-----------------|
-----------------|
-7-7---------5-5-|	X2
-5-5-8-8-3-3-3-3-|
-0-0-6-6-1-1-0-0-|
'cause I'm a 21st...

-----------------|
-----------------|
-----------------|
-7-7-------------|
-5-5-8-8-3-3-5-5-|
-0-0-6-6-1-1-3-3-|
my daddy's a lazy...

---------------------|
---------------------|
---------------------|
-5-5-----------------|	X2
-3-3-5-5-8-8-3-3-7-7-|
-0-0-3-3-6-6-1-1-5-5-|
tried to tell you about no control...

when i work out the solo, and i have way too much spare time on my hands,
i'll tab it out and upload it. don't wait on it, though.

That's it, if you have trouble or
can't get the rhythm, listen to the
damn song yourself.


[Document End]
  development and support by
dmitry ivanov