rock
 
|tablatures   |lyrics   |discussion forums   |more tabs @ XGuitar.com

Bad Religion tabs

A Walk bass tab

artist: bad religion
song: a walk 
Transcription by Dave Tagg, spedhead@ix.netcom.com. 
I'm going for a walk..... 
------------------------- 
--------3---------------- 
--55555---3 3335--------- 
-----------------33333-6- 

Verse: 

D C G (4 times) 
E F 
Your closet is a mess and your backyards falling down 
G A A 
And I have no good ideas or intenstions of sticking around 

so I'm going for a walk... 
------------------------- 
--------3---------------- 
--55555---3 3335--------- 
-----------------33333-6- 
Repeat through out.
  development and support by
dmitry ivanov