rock
 
|tablatures   |lyrics   |discussion forums   |more tabs @ XGuitar.com

Bad Religion tabs

A Walk guitar chords

A Walk
Transcription by Jody Beaulac. 

[Rhythm 1: D C G A#]
[Rhythm 2: D C G]

F
F

(w/ rhythm 1 2x)
I'm going for a walk, not the after-dinner kind
I'm gonna use my hands and I'm gonna use my mind

(w/ rhythm 2 4x)
And who the hell are you to tell me what to do?
You can't even tie your own haggard shoes

E F
Your closet is a mess, your backyard's falling down

G A A(low)
And I have no grand ideas or intentions of sticking around

(w/ rhythm 1 4x)
So I'm going for a walk, not the after-dinner kind
I'm gonna use my hands and I'm gonna use my mind
And I'm gonna build a world independent and exempt
All alone I'll be an empire with no mortgage and no rent

(w/ rhythm 2 4x)
And I don't need to live in your stinking zoo
You can't even feed the animals donated to you

E F
Your storage sheds are ramshackled, flies decorate the walls

G A A(low)
And you expect me to die here in this shit-filled tiny stall?

F F
So I'm going for a walk!

(solo)
E----------------------------------------------
B-6-6-6-5-----------6-------6------------------
G---------7^5-7---5---5---5---5-4---4-5-4-2----
D----------------------------------------------
A----------------------------------------------
E----------------------------------------------

E----------------------------------------------
B-6-6-6-6-5--6-5-6-5-6-5--6-5-----5---6-6------
G-----------------------------5-7---7----------
D----------------------------------------------
A----------------------------------------------
E----------------------------------------------

(w/ rhythm 2)
And I know you're watching everything I do
Call me threat to your children, call me socially unglued
Call me master of insanity, unable to relate
Call me lazy, bane, and filthy
Call me montrous reprobate

A

(w/ rhythm 1)
So I'm going for a walk and there's nothing you can do
Because I don't have to live like you
I'm going for a walk, going for a walk....
  development and support by
dmitry ivanov