rock
 
|tablatures   |lyrics   |discussion forums   |more tabs @ XGuitar.com

Bad Religion tabs

A World Without Melody bass tab

Artist: Bad Religion
Song: A World Without Melody
Album: New America
Instrument: Bass
Tuning: Standard
Tabbed by: Spidey255

Intro
G|--------------|
D|--------------|
A|-----6-----66-|
E|-666---444----|

Verse
G|-----------------|-----------------|-------------------------------|
D|-----------------|-----------------|-------------------------------|
A|-88-4444----6666-|---4-------4-1-3-|---6-44444444-----666-44444444-|
E|---------44------|-1---4-6-1-------|-4------------444--------------|

G|---------------------|
D|---------------------|
A|------4444------6666-|
E|-1111------4444------|

Prechorus
G|-------------|
D|-------------|
A|-------------|
E|-666-5-434-5-|

Chorus
G|---------------------|
D|---------------------|
A|------6666------6666-|
E|-6666------4444------|

-verse
-prechorus
-chorus

Ending
G|----------------|
D|----------------|
A|-88-44----66----|
E|-------44----1~-|
  development and support by
dmitry ivanov