rock
 
|tablatures   |lyrics   |discussion forums   |more tabs @ XGuitar.com

Bad Religion tabs

All There Is bass tab

Tabbed this out a while ago, it sounds right to me.

Intro: guitar pickslide

Verse:
G---------------------------------------------------------------------
D---------------------------------------------------------------------
A-555-5555---------33333333-1111-3333-555-5555--------33333333----3333
E----0----111111111----------------------0----11111111--------1111----

G-------------------------------------------------------
D-----32---------------------------------------------3~-
A-5556--31--------33333333-1111-0000-55555555-11111-----
E---------11111111--------------------------------------

Chorus		         x3
G------------------------------------
D------------------------------------
A-55555555------------------00000000-
E---------66666666-1111111-----------

G------------------------------------
D------------------------------------
A-11111111-3333---5~-----------------
E------------------------------------

verse, chorus, bridge same as verse x2

Final Chorus	                     x3
G------------------------------------
D------------------------------------
A-55555555------------------00000000-
E---------66666666-1111111-----------

G--------------------------------------------
D----------------------3p2-----3-------------
A-11111111-3333-5555555---11111--33333---5~--
E--------------------------------------------

Have Fun
  development and support by
dmitry ivanov