rock
 
|tablatures   |lyrics   |discussion forums   |more tabs @ XGuitar.com

Bad Religion tabs

Anesthesia bass tab

ANESTHESIA (Bassline)
                           As recorded by Bad Religion
                     (From the 1990 Album AGAINST THE GRAIN)

Words and Music by Brett Gurewitz
Transcribed by Matt Curry

Gtr I (E A D G) - 'Untitled'

   Intro
    Q=160
                      $
   4/4
    Gtr I
    E E E Q  E Q      E E E Q  E Q    Q  H.
||-----------------||---------------|----------|
||o---------------o||---------------|----------|
||o---------------o||---------------|----------|
||--6-6-6-6--4-4---||-6-6-6-6--4-4--|-6--------|


    E E E E E E E E   E E E E E E E E   E E E E E E E E   E E E E E E E E
||------------------|-----------------|-----------------|------------------||
||o-----------------|-----------------|-----------------|-----------------o||
||o-----------------|-6-6-6-6-6-6-6-6-|-8-8-8-8-8-8-8-8-|-6-6-6-6-8-8-6-6-o||
||--3-3-3-3-3-3-3-3-|-----------------|-----------------|------------------||


   Verse
    E E E E E E E E   E E E E E E E E   E E E E E E E E
||------------------|-----------------|-----------------|
||o-----------------|-----------------|-----------------|
||o-8-6-8-6-8-6-8-6-|-8-6-8-6-8-6-8-6-|-----------------|
||------------------|-----------------|-3-3-3-3-3-3-3-3-|


  E E E E E E E E  3x E E E E E E E E   E E E E E E E E
|------------------||-----------------|-----------------||
|-----------------o||-----------------|-----------------||
|-6-6-6-6-6-8-8-6-o||-8-6-8-6-8-6-8-6-|-6-6-6-6-8-8-8-8-||
|------------------||-----------------|-----------------||


   Chorus
    E E E E E E E E   E E E E E E E E   E E E E E E E E
||------------------|-----------------|-----------------|
||o-----------------|-----------------|-----------------|
||o-----------------|-6-6-6-6-6-6-6-6-|-8-8-8-8-8-8-8-8-|
||--3-3-3-3-3-3-3-3-|-----------------|-----------------|


  E E E E E E E E     E E E E E E E E
|------------------||------------------|
|-----------------o||------------------|
|-6-6-6-6-8-8-8-8-o||------------------|
|------------------||-6-6-6-6-6-6-6-6--|


  E E E E E E E E     E E E E E E E E     E E E E E E E E
|-----------------||-------------------||-----------------|
|-----------------||o-----------------o||-----------------|
|-----------------||o-5-5-5-5-5-5-5-5-o||-----------------|
|-5-5-5-5-5-5-5-5-||-------------------||-6-6-6-6-6-6-6-6-|


                                                          D.S.
  E E E E E E E E    E  E  E  E  E  E  E  E   E E E E E E E E
|-----------------|-------------------------|------------------||
|-----------------|-------------------------|------------------||
|-8-8-8-8-8-8-8-8-|-10-10-10-10-10-10-10-10-|-8-8-8-8-8-8-8-8--||
|-----------------|-------------------------|------------------||


 Outro
  E E E Q  E Q    Q  H.          E E E E H
|---------------|------------||---------------|
|---------------|------------||o-5-5-5-5------|
|---------------|------------||o--------------|
|-6-6-6-6--4-4--|-6----------||---------------|


  E E E E E Q.     E E E E H      E E E E E E E E   8x
|----------------|--------------|-------------------||
|----------------|--------------|------------------o||
|---6-6-8-6------|-8-8-8-8------|---6-6-6-8-8-6-8--o||
|----------------|--------------|-------------------||


Duration Legend
---------------
W - whole; H - half; Q - quarter; E - 8th; S - 16th; T - 32nd; X - 64th; a - acciaccatura
+ - note tied to previous; . - note dotted; .. - note double dotted
Uncapitalized letters represent notes that are staccato (1/2 duration)
Irregular groupings are notated above the duration line
Duration letters will always appear directly above the note/fret number it represents the
duration for.  Duration letters with no fret number below them represent rests.  Multi-
bar rests are notated in the form Wxn, where n is the number of bars to rest for.  Low
melody durations appear below the staff

Tablature Legend
----------------
 h   - hammer-on
 p   - pull-off
 b   - bend
 pb  - pre-bend
 r   - bend release (if no number after the r, then release immediately)
 /\  - slide into or out of (from/to "nowhere")
 s   - legato slide
 S   - shift slide
  - natural harmonic
[n]  - artificial harmonic
n(n) - tapped harmonic
 ~   - vibrato
 tr  - trill
 T   - tap
 TP  - trem. picking
 PM  - palm muting
\n/  - tremolo bar dip; n = amount to dip
 \n  - tremolo bar down
 n/  - tremolo bar up
/n\  - tremolo bar inverted dip
 =   - hold bend; also acts as connecting device for hammers/pulls
 <>  - volume swell (louder/softer)
 x   - on rhythm slash represents muted slash
 o   - on rhythm slash represents single note slash

Misc Legend
-----------
 |  - bar
||  - double bar
||o - repeat start
o|| - repeat end
*|  - double bar (ending)
 :  - bar (freetime)
 $  - Segno
 &  - Coda
Tempo markers -  = BPM(8/16=s8/s16), where s8 = swing 8ths, s16 = swing 16ths


***************************************************************************************
* Generated using Power Tab Editor by Brad Larsen - http://powertab.guitarnetwork.org *
***************************************************************************************
  development and support by
dmitry ivanov