rock
 
|tablatures   |lyrics   |discussion forums   |more tabs @ XGuitar.com

Bad Religion tabs

Anxiety bass tab

(You probably should strum song differently, this is just for progression)

PART 1
(Note that you can switch any of these E: 5 notes with A: Open, cuz they are same)


G:-----------------------------------------------------------------------
D:-----------------------------------------------------------------------
A:-5-5-5---5---5---5-5-5---5---5---5-5-5---5---5---5-5-5-5-1-------------
E:-------5---5---5-------5---5---5-------5---5---5------------5----------

Play Part 1 THREE times, but on third time, CHANGE the last note (E: 5) to A: 3

CHORUS (contd)

G:-----------------------------------------------------------------------
D:-----------------------------------------------------------------------
A:-5-5-5-5-1-1-1-1-3-3-3-3-5-5-5-5-5-5-5-5----------3-3-3-3-5-5-5-5------
E:------------------------------------------1-1-1-1----------------------

(contd) CHORUS

G:-----------------------------------------------------------------------
D:-----------------------------------------------------------------------
A:-1-1-1-1---------3-3-3-3-5-5-5-5-----------------1-1-1-1-1-1-1-1-3-----
E:---------1-1-1-1-----------------1-1-1-1-3-3-3-3-----------------------

Now play PART 1 again and CHORUS

Then,

PART 2A starts on "Suppress it if you CAN" (starts on CAN)

G:-----------------------------------------------------------------------
D:-----------------------------------------------------------------------
A:-----------------------------------------------------------------------
E:-3-3-3-3-3-3-3-3-1-1-1-1-1-1-1-1-3-3-3-3-3-3-3-3-1-1-1-1-1-1-1-1-------

Play this TWO times

On THIRD time, it changes because they all go "Have more than the other GUUYYYYY!"

PART 2B

G:---------------------------------
D:---------------------------------   now CHORUS HOOKS STRAIGHT INTO IT!!!!!!!!
A:-----------------1-1-1-1-3-3-3-3-
E:-3-3-3-3-3-3-3-3-----------------

CHORUS (as previously mentioned above)

PART 3 (starts after solo)

G:-----------------------------------------------------------------------
D:-----------------------------------------------------------------------
A:-1-1-0-0-1-1-0-0-3-3-3-3-4-4-4-4-1-1-0-0-1-1-0-0-3-3-3-3-4-4-4-4-------
E:-----------------------------------------------------------------------

Play this TWO times

CHORUS (starts on last note)

END!!!! (see, its easy!)
  development and support by
dmitry ivanov