rock
 
|tablatures   |lyrics   |discussion forums   |more tabs @ XGuitar.com

Bad Religion tabs

Automatic Man bass tab

-------------------------------------------------------------------------------
			     AUTOMATIC MAN - Bad Religion
-------------------------------------------------------------------------------

By: Filippo Frigeri

      ||---------------x2---------------||
           x3
G|----||--------||----------------------||
D|-00-||-0-1300-||--------------------0-||
A|----||--3-----||-3-1-00--11--00--13---||
E|----||--------||--------3---3---3-----||


               x3
G|----||-----------------||----------------|
D|-0>-||-00--------------||----------------|
A|----||----311--33-3333-||-11-111-100-003-|
E|----||--------3--------||----------------|


      ||---------------x2---------------||(first time play first part 7
           x3				       times instead of 3)
G|----||--------||----------------------||
D|-00-||-0-1300-||--------------------0-||
A|----||--3-----||-3-1-00--11--00--13---||
E|----||--------||--------3---3---3-----||


                        ||-----------------x2----------------||

G|----|-----------------||-----------------|-----------------||
D|-0>-|-00--------------||-00--------------|-00--------------||
A|----|----311--33-3333-||----311----------|----311-----0000-||
E|----|--------3--------||--------311-3333-|--------311------||


G|-----------------------------------|------------------------|
D|-----------------------------------|-00-0-1300-0-1300-0-130-|
A|-11-111-133-333-311-111-100-000-00-|-----3------3------3----|
E|-----------------------------------|------------------------|

"he's the answer if your peace of mind is lacking"

Filippo Frigeri 28/11/02

_____________________________________________________________________________
-----------------------------------------------------------------------------
  development and support by
dmitry ivanov