rock
 
|tablatures   |lyrics   |discussion forums   |more tabs @ XGuitar.com

Bad Religion tabs

Automatic Man guitar tab

AUTOMATIC MAN


Tabbed out by Eric Legault (goombah@cyberspc.mb.ca)

The C chord in the first riff, and all similar variations, might be
fattened with a low G (3rd fret, 6th
string) as well, I don't know for sure; give it a try, see if you think
it fits. I tried to figure out the
rhythm, but alas, I only Minored in Music, and one thing I could never
do well was take a rhythm 
from my head and translate it into the appropriate rhythm notes.

My only worked out guess is that it's in 4/4 time, with the 1st bar
going as follows:
q-e-e-e-e-e3-e3-e3 (q=quarter note, e=eigth, e3=a triplet eighth).
Anyway, listen to the tune and
figure it out. If you think I have a few more chords in my transcription
than there appears to be at
first listen (such as in the third bar: 3 A's and then two C's, with the
last four being played quickly
together, possibly as paired sixteenth notes), then that is just my
interpretation; the song does seem to have a "galloping" guitar rhythm to it.

Whatever; enjoy, sinners!

7x
||-----------------------------||-----------------------|-----------------------
||-----------------------------||-----------------------|-----------------------
||*--7--------------5--8--10--*||--7--------------5-----|-----------------------
||*--7--------------5--8--10--*||--7--------------5--8--|--7--7--7--5--5--8---

||---5--x--x--x--x--3--6--8----||--5--x--x--x--x--3--8--|--7--7--7--5--5--8----
||-----------------------------||--------------------6--|--5--5--5--3--3--6-----

                                                                    
3x
------|-----------------------|---------||-----------------------------||-------
------|-----------------------|---------||-----------------------------||-------
------|-----------------------|---------||*--7--------------5--8--10--*||--7----
8--8--|--5--5--7--7--7--5--5--|--8--10--||*--7--------------5--8--10--*||--7--
8--8--|--5--5--7--7--7--5--5--|--8--10--||---5--x--x--x--x--3--6--8----||--5---
6--6--|--3--3--5--5--5--3--3--|--6--8---||-----------------------------||-------
                                                                              

------------------|--------------------------|-----------------------|---------
------------------|--------------------------|-----------------------|---------
------------5-----|--------------------------|-----------------------|---------
------------5--8--|--7--7--7--5--5--8--8--8--|--5--5--7--7--7--5--5--|--8----
x--x--x--x--3--8--|--7--7--7--5--5--8--8--8--|--5--5--7--7--7--5--5--|--8----
---------------6--|--5--5--5--3--3--6--6--6--|--3--3--5--5--5--3--3--|--6----
  

       (full bend)                   (full bend)
----|---------10--10--10--10--10--|---------10--10--10--10--10--|------------
----|---------10--10--10--10--10--|---------10--10--10--10--10--|------------

----|---(12)----------------------|---(12)----------------------|---------------

10--|-----------------------------|-----------------------------|--------------
10--|-----------------------------|-----------------------------|--------------
8---|-----------------------------|-----------------------------|--------------
  

(full bend)                pick
slide                            
-------10--10--10--10--10------||------------------------|--------------------
-------10--10--10--10--10------||------------------------|--------------------

-(12)--------------------------||*--7--7--7--5--3--3--3--|-----5--5--5--5--5--
----------------------------x--||*--7--7--7--5--3--3--3--|--5--5--5--5--5--5-
-------------------------------||---5--5--5--3--1--1--1--|--5--3--3--3--3--3--
-------------------------------||------------------------|--3------------------
  
    
3x
-------||--------------------------|--------------------------||----------------
-------||--------------------------|--------------------------||----------------
5--5--*||--------------------------|--------------------------||*--7------------
5--5--*||--8--8--8--8--8--8--8--8--|--7--7--7--7--7--7--7--7--||*--7----------
3--3---||--8--8--8--8--8--8--8--8--|--7--7--7--7--7--7--7--7--||---5--x--x----
-------||--6--6--6--6--6--6--6--6--|--5--5--5--5--5--5--5--5--||--------------
  

                 4x                           
3x
-----------------||--||--------------------------||-----------------------------
-----------------||--||--------------------------||-----------------------------
------5--8--10--*||--||*--7--7--7--7--5--8--10--*||--7--7--7--7--5------------
------5--8--10--*||--||*--7--7--7--7--5--8--10--*||--7--7--7--7--5--8---------
x--x--3--6--8----||--||---5--5--5--5--3--6--8----||--5--5--5--5--3--8----------
-----------------||--||--------------------------||-----------------6-----------

                                                                                
------------------------------|------------------------||----------------------
------------------------------|------------------------||----------------------
------------------------------|------------------------||*--7--7--7--7--5--8--
7--7--7--5--5--8--8--8--5--5--|--7--7--7--5--5--8--10--||*--7--7--7--7--5--8
7--7--7--5--5--8--8--8--5--5--|--7--7--7--5--5--8--10--||---5--5--5--5--3--6
5--5--5--3--3--6--6--6--3--3--|--5--5--5--3--3--6--8---||--------------------
  
  
3x
-----||--------------------|--------------------------|-------------------------
-----||--------------------|--------------------------|-------------------------
10--*||--7--7--7--7--5-----|--------------------------|------------------------
10--*||--7--7--7--7--5--8--|--7--7--7--5--5--8--8--8--|--5--5--7--7--7--5--5-
8----||--5--5--5--5--3--8--|--7--7--7--5--5--8--8--8--|--5--5--7--7--7--5--5-
-----||-----------------6--|--5--5--5--3--3--6--6--6--|--3--3--5--5--5--3--3--

                                                                              
|--------|--------------------------|--------------------------|--||------------
|--------|--------------------------|--------------------------|--||------------
|-----5--|--7--7--7--7--7--7--7--7--|--7--7--7--7--7--7--7--7--|--||*--7--7---
|--8--5--|--7--7--7--7--7--7--7--7--|--7--7--7--7--7--7--7--7--|--||*--7--7---
|--8--3--|--5--5--5--5--5--5--5--5--|--5--5--5--5--5--5--5--5--|--||---5--5---
|--6-----|--------------------------|--------------------------|--||------------

                                                                              
---------------------------------------||------------------------|-------------
---------------------------------------||------------------------|-------------
7--5--3--3--3-----5--5--5--5--5--5--5--||*--7--7--7--5--3--3--3--|-----------
7--5--3--3--3--5--5--5--5--5--5--5--5--||*--7--7--7--5--3--3--3--|----------
5--3--1--1--1--5--3--3--3--3--3--3--3--||---5--5--5--3--1--1--1--|-----------
---------------3-----------------------||------------------------|-------------
   1st and         2nd
and


  3rd times       4th times
4x
-------------|----------------||--------------------------|---------------------
-------------|----------------||--------------------------|---------------------
-------------|---------------*||--------------------------|---------------------
-3--3--5--5--|---3--3--7--7--*||--8--8--8--8--8--8--8--8--|--10--10--10--10-
-3--3--5--5--|---3--3--7--7---||--8--8--8--8--8--8--8--8--|--10--10--10--10--
-1--1--3--3--|---1--1--5--5---||--6--6--6--6--6--6--6--6--|--8---8---8---8---


----------------|--------------------------|--------------------------|--------
----------------|--------------------------|--------------------------|--------
----------------|--------------------------|--------------------------|--------
10--10--10--10--|--8--8--8--8--8--8--8--8--|--7--7--7--7--7--7--7--7--|-----
10--10--10--10--|--8--8--8--8--8--8--8--8--|--7--7--7--7--7--7--7--7--|-----
8---8---8---8---|--6--6--6--6--6--6--6--6--|--5--5--5--5--5--5--5--5--|------
                                                                              
 
                                                            3x
(let ring) "The Automatic -
Maaaaaaaaannnnnnnnnnnnnnnnnnn!"
----|------------------||---------------------------||-----||-------------------
----|------------------||---------------------------||-----||-------------------
----|------------------||*---7--7--7--7--5--8--10--*||--7--||-------------------
-7--|------------------||*---7--7--7--7--5--8--10--*||--7--||-------------------
-7--|------------------||----5--5--5--5--3--6--8----||--5--||-------------------
-5--|------------------||---------------------------||-----||-------------------


[Document End]
  development and support by
dmitry ivanov