rock
 
|tablatures   |lyrics   |discussion forums   |more tabs @ XGuitar.com

Bad Religion tabs

Believe It bass tab

Artist: Bad Religion
Song: Believe It
Album: New America
Instrument: Bass
Tuning: Standard
Tabbed by: Spidey255

Intro
G|------------------------------------|-----|
D|------------------------------------|-----|play that when
A|------------------33333333-55555555-|-10>-|the guitars
E|-3333333333333333-------------------|-----|change

Verse
G|-----------------------------------------------|
D|-----------------------------------------------|
A|----2------3------------333333-2-3-55-33-22-00-|3x
E|-33---3-55---3-55555555------------------------|

G|-------------------------------------------------------------|
D|-------------------------------------------------------------|
A|----2-----2------------22222222-33333333-5555-3333-2222-0000-|
E|-33---333---3-55555555---------------------------------------|

Chorus
G|---------------------|---------------------|
D|---------------------|---------------------|
A|-----------3333-5555-|-5555-3333-2222-0000-|
E|-3333-5555-----------|---------------------|

-2nd part of intro
-verse
-chorus
-2nd part of intro

Bridge
G|--------------------------------------------------|
D|-------------7-2-4-5-4-2-0-2---------------/9-7-5-|
A|---7-5-4-7-5--------------------2-4-5-4-00--------|
E|-0----------------------------0-------------------|

G|---------------------------------------|
D|---------------------------------------|
A|----------------------5555555555555555-|
E|-3333-1111-555555-3/5------------------|

-verse
-chorus
  development and support by
dmitry ivanov