rock
 
|tablatures   |lyrics   |discussion forums   |more tabs @ XGuitar.com

Bad Religion tabs

Best For You guitar chords

BEST FOR YOU


Tabbed out by Tony Sly


Lyrics:

Verse:
Above us lay the burdens
Below us lay the truth
We're somewhere in the middle
and we're all discontent too

Pre Chorus:
Is someone watching over you?
Inside they know whats best for you

Verse:
Judgements not tommorrow
Its today, its now, its here
But no it isnt Jesus
Take a look at all your peers

Pre Chorus:
They're all looking down on you
Inside they know whats best for you

Chorus:
Everybody knows whats best for you
Everybody knows whats best for you
(repeat)

Main Riff  (Repeat a lot)
                                 
E-------------------------------------------:|
B-------------------------------------------:|
G---7--7--7--7--7--7--7--7--3--3--5--5--5--5:|
D---7--7--7--7--7--7--7--7--3--3--5--5--5--5:|
A---5--5--5--5--5--5--5--5--1--1--3--3--3--3:|
E-------------------------------------------:|
                                                                       
At the part where the song goes: There's someone watching over you
E----------------------------------|
B----------------------------------|   Then back to main riff
G---10--10--10--10--12--12--12--12-|
D---10--10--10--10--12--12--12--12-|
A---8---8---8---8---10--10--10--10-|
E----------------------------------|

At the part where it goes: Inside they know whats best for you
E---------------------------------------------------------------|
B---------------------------------------------------------------|
G---10--10--10--10--12--12--12--12--14--14--14--14--14--14--14--|
D---10--10--10--10--12--12--12--12--14--14--14--14--14--14--14--|
A---8---8---8---8---10--10--10--10--12--12--12--12--12--12--12--|
E---------------------------------------------------------------|

All lyrics copyright Epitah Records 1995
I know B and C chords in the main riff sound like they only play once each
but if you listen carefully you'll hear they play more than once


[Document End]
  development and support by
dmitry ivanov