rock
 
|tablatures   |lyrics   |discussion forums   |more tabs @ XGuitar.com

Bad Religion tabs

Beyond Electric Dreams bass tab

Bad Religion
Beyond Electric Dreams
Pfiestdog007@yahoo.com
YE AH!
Intro
G ----------------------------------
D ----------------------------------
A--3----5-0------3----5-0--------  x1
E-----1-------4-----1-------------

Verse
G ----------------------------------
D ----------------------------------
A--3----5-0------3----5-0-------    x2
E-----1-------4-----1------4------

Chorus
G --------------------------------------------------
D --------------------------------------------------
A------0----0123------0-----0123---------------   x2
E---------1-------3-4-----1----------3-4---------

Bridge
G --------|-----------------
D --------|------------------
A-3---3--|----3----0-------  x6
E---------|-------4---------

Chorus
G ----------------------------------------------------------
D ----------------------------------------------------------
A------0----0123------0-----0123-----------------------   x7
E---------1-------3-4-----1----------3---4-----------------
  development and support by
dmitry ivanov