rock
 
|tablatures   |lyrics   |discussion forums   |more tabs @ XGuitar.com

Bad Religion tabs

Boot Stamping On A Human Face Forever bass tab

Bad Religion
Boot stamping on a human face forever
Pfiestdog007@yahoo.com
YE AH!
Intro& Verse
G ----------------------------------------------------------------------------
D --00000--------00000----------00000---------------------------------
A-----------11111-------11111-----------11111-------------------------    x2
E----------------------------------------------------11111/55555---------


G ------------------------------------------------------------------------
D --0------------------0---------------0----------------0---------------
A-------2-0----0-----------2--0---0--------2-0-----0-------------3-0---   x1
E-----3------3-----------3------3--------3------3--------33--1---------

Repeat

Bridge & verse
G ----------------------------------------------------------------------------
D --00000--------00000----------00000---------------------------------
A-----------11111-------11111-----------11111-------------------------    x4
E----------------------------------------------------11111/55555---------

G ------------------------------------------------------------------------
D --0------------------0---------------0----------------0---------------
A-------2-0----0-----------2--0---0--------2-0-----0-------------3-0---   x1
E-----3------3-----------3------3--------3------3--------33--1---------
  development and support by
dmitry ivanov