rock
 
|tablatures   |lyrics   |discussion forums   |more tabs @ XGuitar.com

Bad Religion tabs

Boot Stamping On A Human Face Forever guitar tab

Boot Stamping On A Human Face Forever
2004 BAD RELIGION
Tabbed By Ronny
XFragileTimeX@yahoo.com



h=hammer-on
p=pull-off
/=slide up
\=slide down

o=play chord
x=mute chord


Intro Riff:

e|-------------------------------|-------------------------------|
B|-------------------------------|-------------------------------|
G|-------------------------------|-------------------------------|
D|------------7-7-7h8p7---3---8p7|-------------------------------|
A|-------------------------------|-------------------------------|
E|-------------------------------|-------------------------------|
o o o o o . x x o o o o o . x x o o o o o . x x o o o o o . x x

Dm A# Dm A#

E|-------------------------------|-------------------------------|
B|-------------------------------|-------------------------------|
G|-------------------------------|-------------------------------|
D|------------7-7-7h8p7---5---0--|3---3---3---5p2----------------|
A|-------------------------------|-------------------------------|
E|-------------------------------|-------------------------------|
o o o o o . x x o o o o o . x x o o o o o . x x o o o o o . x x

Dm Gm F A



e|-------------------------------|-------------------------------|
B|-------------------------------|-------------------------------|
G|-------------------------------|-------------------------------|
D|------------7-7-7h8p7---5---8p7|-------------------------------|
A|-------------------------------|-------------------------------|
E|-------------------------------|-------------------------------|
o o o o o . x x o o o o o . x x o o o o o . x x o o o o o . x x

Dm A# Dm A#

E|-------------------------------|-------------------------------|
B|-------------------------------|-------------------------------|
G|-------------------------------|-------------------------------|
D|------------7-7-7h8p7---5---0--|3---3---3---5p2----------------|
A|-------------------------------|-------------------------------|
E|-------------------------------|-------------------------------|
o o o o o . x x o o o o o . x x o o o o o . x x o o o o o . x x

Dm Gm F A

___________________________________________________________________

Verse:

Dm A# Dm A#

Dm Gm F A

___________________________________________________________________

Chorus:

"You can't win..." (x3)

D5 F#5 B5 A5

G5 A5


"Yeah I hope it will last..." (Last time only)

D5 G5 F5 C5

A5

___________________________________________________________________


Solo to come when I begin to like this song...
  development and support by
dmitry ivanov