rock
 
|tablatures   |lyrics   |discussion forums   |more tabs @ XGuitar.com

Bad Religion tabs

Bored And Extremely Dangerous guitar tab

---------------------------------------------------------------------------------
                  BORED AND EXTREMELY DANGEROUS - Bad Religion
---------------------------------------------------------------------------------

By: Terry (BadReligion_Believer5@hotmail.com)

Verse
e|------------------------------------------------|
B|------------------------------------------------|
G|------------------------------------------------|
D|---------------8-8-8-8-8-8----------------------|
A|--5-5-5-5-5-5--6-6-6-6-6-6--8-8-8-8-8-8---------|
E|--3-3-3-3-3-3---------------6-6-6-6-6-6--6\5\3--|

e|--------------------------------------------------------|
B|--------------------------------------------------------|
G|--------------------------------------------------------|
D|---------------8-8-8-8-8-8---------------5-5-5--7-7-7-7-|
A|--5-5-5-5-5-5--6-6-6-6-6-6--8-8-8-8-8-8--3-3-3--5-5-5-5-|
E|--3-3-3-3-3-3---------------6-6-6-6-6-6-----------------|

e|------------------------------------------------------------------------|
B|------------------------------------------------------------------------|
G|------------------------------------------------------------------------|
D|-----------5-5-5-5-5-5-5-5--6--8-8-8-8-8-8-----------10-10-10-10-10-10--|
A|--5-5-5-5--3-3-3-3-3-3-3-3--5--6-6-6-6-6-6--8-8-8-8---8--8--8--8--8--8--|
E|--3-3-3-3-----------------------------------6-6-6-6---------------------|

Chorus
e|----------------------------------------------------------------------------|
B|----------------------------------------------------------------------------|
G|----------------------------------------------------------------------------|
D|--------------------10-10-10-10-10-10--8-8-8-8-----------10-10-10-10-10-10--|
A|--5-5-5-5--8-8-8-8---8--8--8--8--8--8--6-6-6-6--8-8-8-8---8--8--8--8--8--8--|
E|--3-3-3-3--6-6-6-6------------------------------6-6-6-6---------------------|

e|------------------------------------------------|
B|------------------------------------------------|
G|------------------------------------------------|
D|-----------7-7-7-7--8-8-8-8--10-10-10-10-10-10--|
A|--5-5-5-5--5-5-5-5--6-6-6-6---8--8--8--8--8--8--|
E|--3-3-3-3---------------------------------------|

Bridge
e|------------------------------------------------------------------------------|
B|------------------------------------------------------------------------------|
G|------------------------------------------------------------------------------|
D|-------------------8-8-8-8-8-8-8-8-------------------10-10-10-10-10-10-10-10--|
A|--5-5-5-5-5-5-5-5--6-6-6-6-6-6-6-6--8-8-8-8-8-8-8-8---8--8--8--8--8--8--8--8--|
E|--3-3-3-3-3-3-3-3-------------------6-6-6-6-6-6-6-6---------------------------|
  .....................................p.m......................................

Outro
e|-------------|
B|-------------|
G|-------------|
D|-------------|
A|--5~~~~~~~~--|
E|--3~~~~~~~~--|

I love this song.
The way it "ends"....then plays again!!!
Thats so cool!!
I bet when you get it...you don't realize 'til one day you're in your car
have it playing, and then you can't change it to another song
because of stupid weather and then you realize!
And it makes it just that more sweeter!
-------------------------------------------------------------------------------
===============================================================================
  development and support by
dmitry ivanov