rock
 
|tablatures   |lyrics   |discussion forums   |more tabs @ XGuitar.com

Bad Religion tabs

Broken guitar tab

Bad Religion - Broken
Tabbed By: Daniel Taylor
EMail: danielt88@hotmail.com


Loads of sites have the rest of the song but
I can't be bothered to type it. All they have wrong is the solo:

e|-----------------------------------|
B|----------8~-----8/10----8---------|
G|--7---9----------------------9-----|
D|-----------------------------------|
A|-----------------------------------|
E|-----------------------------------|

e|-----------------------------------|
B|----------8~-----8/10----8---------|
G|--7---9----------------------9-----|
D|-----------------------------------|
A|-----------------------------------|
E|-----------------------------------|

e|-----------------------------------|
B|-----------------------------------|
G|--7---9----------------------------|
D|----------9----9/10--9-------------|
A|-----------------------------------|
E|-----------------------------------|

e|-----------------------------------|
B|-----------------------------------|
G|--7---9----------------------------|
D|----------9----9^10---9------------|
A|-----------------------------------|
E|-----------------------------------|

There you go, very easy.
  development and support by
dmitry ivanov