rock
 
|tablatures   |lyrics   |discussion forums   |more tabs @ XGuitar.com

Bad Religion tabs

Cant Stop It bass tab

Bad Religion
"Can't Stop It"
The Process of Belief
Tabbed by Evan

This is a great fast punk song
listen to the song to get the rhythm


Intro  (x2)
G|----------------------------------|
D|----------------------------------|
A|--22-233-3----66-622-233-3----88--|
E|----------55-5------------55-5----|

Verse
G|-------------------------------------------------------|
D|-------------------------------------------------------|
A|--2222222222222-333333333333-53-2222222---------2-252--|
E|----------------------------------------3333333--3-----|

Chorus
G|------------------------------------------------------------------|
D|------------------------------------------------------------------|
A|--2222222-------------------------2-2-2-2-------------------------|
E|----------5555555-3333333-2222222--------5-5-5-5-3-3-3-3-2222222--|
Con't
G|-----------------------|
D|-----------------------|
A|-----------------2-2-2-|
E|-3333333-5555555-------|

Intro (x1)

Verse

Chorus

Intro (x1)

Ending        (The 2x is a staccato note-mute it right after you play it)
G|----------------------|
D|----------------------|
A|--22-233-3----66-62x--|
E|----------55-5--------|


Enjoy
  development and support by
dmitry ivanov