rock
 
|tablatures   |lyrics   |discussion forums   |more tabs @ XGuitar.com

Bad Religion tabs

Delirium Of Disorder bass tab

DELIRIUM OF DISORDER by BAD RELIGION. Album : Suffer (1988)
Fast, easy and angry. Good mix.
:
#Intro# X2
G:---6X---|-------|
D:--------|-------|
A:--------|-------|
E:-3-55---|-3-1-0-|
:
#Verse# X2
G:------------|
D:------------|
A:------------|
E:-5>-3>-5>---|
:
#Chorus#
G:--10X---|-------|---7X---|-------|---8X---|
D:--------|-------|--------|-------|--------|
A:--------|-------|--------|-------|--------|
E:-3-55---|-3-1-0-|-3-55---|-3-1-0-|-3-55---|
:
Then play verse X2
:
#Chorus2#
G:--10X---|-------|---7X---|-------|
D:--------|-------|--------|-------|
A:--------|-------|--------|-------|
E:-3-55---|-3-1-0-|-3-55---|-3-1-0-|
                   \\______x3______/
:
#End#
G----------|
D----------|
A----------|
E-3-55-3-5-|
:
A minute and a half of of pure energy!!
Tabbed by Richie 28.09.2003
:
cultureistheenemy@lycos.com
  development and support by
dmitry ivanov