rock
 
|tablatures   |lyrics   |discussion forums   |more tabs @ XGuitar.com

Bad Religion tabs

Destined For Nothing bass tab

Artist: Bad Religion
Song: Destined For Nothing
Album: Process Of Belief
Tuning: Standard
Tabbed by: Spidey255

Intro
G|---------------------|----------------------------|
D|---------------------|----------------------------|
A|-5555-8888-----------|-55555555-------------------|
E|-----------6666-8888-|----------11111111-55555555-|

Verse
G|--------------------------------|
D|--------------------------------|
A|-5-3~-88888888-3333333--2h3p2-5-|
E|-----------------------3--------|

Prechorus
G|------------------------------------------------|
D|------------------------------------------------|
A|----------33333333-11111111-1-0-1-3------3333-5-|
E|-11111111---------------------------1111--------|

Chorus
G|-----------------------------------------------|
D|-----------------------------------------------|
A|-----------------8----8----5555-----------3333-|
E|-33-5555-33-5555---88---88------6666-1111------|

G|-----------------------------------------------------------------|
D|-----------------------------------------------------------------|
A|-33-5555-33-5555-8----8---------3333-00000000-1111-3333-55555555-|
E|-------------------88---88-6666----------------------------------|

Post Chorus
G|-----------------|
D|-----------------|
A|-0-1-0-1-0-1-0-1-|
E|-----------------|

Bridge
G|-----------------------------------------|
D|-----------------------------------------|
A|-5555555-7-8888888-0-1111111-2-3333333-0-|
E|-----------------------------------------|

-Chorus
-Intro

Ending
G|----------------------|
D|----------------------|
A|-555-3-555-3-555-3-5\-|
E|----------------------|
  development and support by
dmitry ivanov