rock
 
|tablatures   |lyrics   |discussion forums   |more tabs @ XGuitar.com

Bad Religion tabs

Destined For Nothing guitar tab

Bad Religion - Destined For Nothing
Tabbed By: GuitarBurst05
Email: guitarburst05@hotmail.com

Tuning: Standard (E A D G B E)



Here we go again. I'm really gettin into makin these tabs. This is
number three for me.

This song can get kinda confusing. When tabbing it I heard some stuff
that I hadn't noticed while just casually listening beforehand. You
need to listen to this song while reading the tab to really understand.

Intro

E|--------------------------------------------------------||
B|--------------------------------------------------------||
G|--7-7-7-7--10-10-10-10--3-3-3-3--5-5-5-5----------------||
D|--7-7-7-7--10-10-10-10--3-3-3-3--5-5-5-5----------------|| x4
A|--5-5-5-5---8--8--8--8--1-1-1-1--3-3-3-3----------------||
E|--------------------------------------------------------||

E|-----------------------------------------||
B|-----------------------------------------||
G|--7-7-7-7--10-10-10-10-------------------||
D|--7-7-7-7--10-10-10-10--7-7-7-7-7-7-7-7--|| x1
A|--5-5-5-5---8--8--8--8--7-7-7-7-7-7-7-7--||
E|------------------------5-5-5-5-5-5-5-5--||

Verse

E|--------------------------------------------------------||
B|--------------------------------------------------------||
G|--7-5~--10-10-10-10--5-5-5-5-----5-7--------------------||
D|--7-5~--10-10-10-10--5-5-5-5--5--5-7--------------------|| x2
A|--5-3~---8--8--8--8--3-3-3-3--5--3-5--------------------||
E|------------------------------3-------------------------||

E|--------------------------------------------------------||
B|--------------------------------------------------------||
G|--10--5---------------10--5--7--------------------------||
D|--10--5--8--8-7-8-10--10--5--7--------------------------|| x1
A|---8--3--8--8-7-8-10---8--3--5--------------------------||
E|---------6--6-5-6--8------------------------------------||

Chorus

E|------------------------------------------------------------||
B|------------------------------------------------------------||
G|----------------5----5--7-7-7-7--3-3-3-3-----------5-5-5-5--||
D|--7-7-7--5-7--5-5--5-5--7-7-7-7--3-3-3-3--3-3-3-3--5-5-5-5--||
A|--7-7-7--5-7--5-3--5-3--5-5-5-5--1-1-1-1--3-3-3-3--3-3-3-3--||
E|--5-5-5--3-7--3----3----------------------1-1-1-1-----------||

E|-----------------------------------------------------------||
B|-----------------------------------------------------------||
G|----------------5----5--3-3-3-3--5-5-5-5-------------------||
D|--7-7-7--5-7--5-5--5-5--3-3-3-3--5-5-5-5--7-7-7-7-7-7-7-7--||
A|--7-7-7--5-7--5-3--5-3--1-1-1-1--3-3-3-3--7-7-7-7-7-7-7-7--||
E|--5-5-5--3-5--3----3----------------------5-5-5-5-5-5-5-5--||

E|--------------------------------------------------------||
B|--------------------------------------------------------||
G|--3-3-3-3--5-5-5-5--7-7-7-7-7-7-7-7---------------------||
D|--3-3-3-3--5-5-5-5--7-7-7-7-7-7-7-7---------------------||
A|--1-1-1-1--3-3-3-3--5-5-5-5-5-5-5-5---------------------||
E|--------------------------------------------------------||

Pre Verse

E|--------------------------------------------------------||
B|--------------------------------------------------------||
G|--------------------------------------------------------||
D|--7/8\7/8\7/8\7-----------------------------------------||
A|--7/8\7/8\7/8\7-----------------------------------------||
E|--5/6\5/6\5/6\5-----------------------------------------||

Repeat Verse
Repeat Chorus

Bridge x4

E|---------------------------------------------------------------------||
B|---------------------------------------------------------------------||
G|--7-7-7-7-7-7-7-7--3-3-3-3-3-3-3-3-------------------5-5-5-5-5-5-5-5-||
D|--7-7-7-7-7-7-7-7--3-3-3-3-3-3-3-3--3-3-3-3-3-3-3-3--5-5-5-5-5-5-5-5-||
A|--5-5-5-5-5-5-5-5--1-1-1-1-1-1-1-1--3-3-3-3-3-3-3-3--3-3-3-3-3-3-3-3-||
E|------------------------------------1-1-1-1-1-1-1-1------------------||

Repeat Intro

Outro

E|--------------------------------------------------------||
B|--------------------------------------------------------||
G|--7-7-7--5--7--5--7--5-7--------------------------------||
D|--7-7-7--5--7--5--7--5-7--------------------------------||
A|--5-5-5--3--5--3--5--3-5--------------------------------||
E|--------------------------------------------------------||
  development and support by
dmitry ivanov