rock
 
|tablatures   |lyrics   |discussion forums   |more tabs @ XGuitar.com

Bad Religion tabs

Empty Causes bass tab

Artist: Bad Religion
Song: Empty Causes
Album: The Gray Race
Instrument: Bass
Tuning: Standard
Tabbed by: Spidey255

Intro
G|-------------------------------------------|
D|-------------------------------------------|
A|-3333--------------------------------------|
E|------33333-5555-0000-11111-0-1-2-33333333-|

Verse
G|-------------------------------------------|------------------------------|
D|-------------------------------------------|------------------------------|
A|-3333-2222-0000--------------------2---2-5-|-3333-2222-0000---------------|
E|----------------3333-11111111-3333---3-----|----------------3333-11111111-|

Prechorus
G|-----------------------------------------------------------------------------------|
D|-----------------------------------------------------------------------------------|
A|---------------------4-5-777-5-7-5---------------------3-4-6666-10>-10-10-88-77-55-|
E|-0000-3-0-3-4-555555---------------8-7-55555555-444444-----------------------------|

Chorus
G|-------------------------------------------|-----------------------------------------------|
D|-------------------------------------------|-----------------------------------------------|
A|-3333----------------88-77-55-33-555-3-7---|-3333----------------------------------333-----|
E|------3333-5555-0000---------------------3-|------3333-5555-0000-11111111-33333333-----333-|

-verse
-first half of chorus

Second Part Of Chorus (Variation)
G|----------------------------------------------------------------|
D|----------------------------------------------------------------|
A|-3333----------------------------------33333333333-333-2-33-2-0-|
E|------3333-5555-0000-11111111-33333333--------------------------|

Bridge
G|----------------------------------------------------------------------------------------|
D|----------------------------------------------------------------------------------------|
A|-----3-2-0----------6666----------------33-22-0000--------3-4-66666-8-6-----------------|
E|-1-3-------44444444------6666-1111-3333------------444444---------------4-3333333333333-|

-verse
-prechorus (stop at the tens)
-chorus
-intro

Ending
G|---------------------------|
D|---------------------------|
A|-111-0-111-0------333-2-3~-|
E|-------------1111----------|
  development and support by
dmitry ivanov