rock
 
|tablatures   |lyrics   |discussion forums   |more tabs @ XGuitar.com

Bad Religion tabs

Entropy guitar chords

ENTROPY


Intro: slide up and down from 13th fret(6th str.) and 15th fret(5th str.)

F      C#       D#  F G#           D#         A#     D#    F-F-D#-F(*)
random blobs of power expressed as that which we all disregard,
F      C#         D#   F G#     D#        A#     D#      F-F-D#-F
ordered states of nature on a scale that no one thinks about,
G#                              A#                C
don't speak to me of anarchy of peace or calm revolt,man,
       G#                          A#             G(high)
We're in a play of slow decay orchestrated by boltzmann,
      G#      D#     A#            F
it's entropy, it's not a human issue,
G#     D#        A#          G
entropy, it's a matter of course,
G#      D#  A#           F
entropy, energy at all levels,
G#     D#         A#           C
entropy, from it you can not divorce
             C#                              D#               F C# D# F 
and your pathetic moans of suffrage tend to lose all significance,

G# D# A# D# F-F-D#-F

F        C#      D#    F      G#       D#      A#      D#     F-F-D#-F
extinction, degradation; the natural outcomes of our ordered lives,

F    C#     D#    F    G#  D#    A#         D#       F-F-D#-F
power, motivation; temporary fixtures for which we strive,
G#                           A#             C
something in our synapses assures us we're ok
        G#        A#                         G(high)
but in our disquilibrium we simply can not stay,
       G#    D#     A#          F
it's entropy, it's not a human issue,
G#     D#        A#          G
entropy, it's a matter of course,
G#     D#  A#           F
entropy, energy at all levels,
G#     D#         A#            C
entropy, from it you can not divorce
    A#                       C
a stolid proposition from a man unkempt as I,
    A#                 C
my affectatious nature I can't rectify,
    A#                     C
but we are out of equilibrium unnaturally,
   A#                C
a pang of consciousness of death and then you will agree


   F     C#      D#   F     G#    D#   A#  D# FFD#F             G#
E-----------------------------------------------------------------------
B-18----18-16h13------------13-13-13-11-11-11-------------------13-----------
G----------------15-13---13-15-15-15-13-13-13--------------13--15b17(hold bend)
D---------------------15------------------------15----13h15------------------
A-----------------------------------------------------------------------
E-----------------------------------------------------------------------






    A#       C#                 G#      A#               G(high)
E--------------------------------------------------------------------
B-13--13--13---16--16--16h13------------13------13--13----------------
G-17--17--17--15b17(Hold)----15-13--13h15b17(hold)17--17(vibrato/rel.)
D--------------------------------------------------------------------
A--------------------------------------------------------------------
E--------------------------------------------------------------------
                                                                   itís

G#    D# A# F  (slow down)
entropy,
G#     D#        A#          G (speed up on G)
entropy, it's a matter of course,
G#     D#  A#           F
entropy, energy at all levels,
G#     D#         A#            C
entropy, from it you can not divorce
G#     D# A# F
entropy,
G#     D# A# G
entropy,
G#     D# A# F
entropy,
G#     D# A# C
entropy,
F C# D# F


(* : This is a pretty fast strum, like FFF D#D# FF )


[Document End]
  development and support by
dmitry ivanov