rock
 
|tablatures   |lyrics   |discussion forums   |more tabs @ XGuitar.com

Bad Religion tabs

Epiphany guitar tab

Intro
e|------------------------------------------|-------------------------------|
B|------------------------------------------|-------------------------------|
G|--7-7-7-7-7-------------------------------|--7-7-7-7-7--------------------|
D|--7-7-7-7-7--10-10--8-8-8-8-8--7-7-7-7-7--|--7-7-7-7-7--10-10--8-8-8-8-8--|
A|--5-5-5-5-5--10-10--8-8-8-8-8--7-7-7-7-7--|--5-5-5-5-5--10-10--8-8-8-8-8--|
E|--------------8--8--6-6-6-6-6--5-5-5-5-5--|--------------8--8--6-6-6-6-6--|

e|----------------------------------------------|
B|--10-10--10--10-10--10--10-10--10--10-10--10--|
G|----------------------------------------------|
D|---7--7---7---7--7---7---7--7---7---7--7---7--|
A|----------------------------------------------|
E|----------------------------------------------|

Verse
e|------------------------------------------------------------------|
B|------------------------------------------------------------------|
G|------------------------------------------------------------------|
D|------------------------------------------------------------------|
A|--6~~~~--7~~~~--8~~~~--7-xx-7/8\7-xx-7/8\7-xx-7/8\7-xx-7/8\7~~~~--|
E|--6~~~~--5~~~~--6~~~~--5-xx-5/6\5-xx-5/6\5-xx-5/6\5-xx-5/6\5~~~~--|

Chorus
e|---------------------------------------------------------------------------|
B|---------------------------------------------------------------------------|
G|-----------------------------------------------------------------10--9--7--|
D|--7-7-7-7-7-7-7-7-------------------10-------------------------------------|
A|--5-5-5-5-5-5-5-5--7-7-7/8-8-8-8-8---8--10-10-10-10-10-10-10-10---8--7--5--|
E|-------------------5-5-5/6-6-6-6-6-------8--8--8--8--8--8--8--8------------|

e|--------------------------------------------------------------------------------------|
B|--------------------------------------------------------------------------------------|
G|-----------------------------------------------------------------10--9~~--10--9-------|
D|--7-7-7-7-7-7-7-7-------------------10------------------------------------------------|
A|--5-5-5-5-5-5-5-5--7-7-7/8-8-8-8-8---8--10-10-10-10-10-10-10-10---8--7~~---8--7--7~~--|
E|-------------------5-5-5/6-6-6-6-6-------8--8--8--8--8--8--8--8------------------5~~--|

Fill
e|-------------------------------------------------------|
B|-------------------------------------------------------|
G|--7-----------------5--7----------7--------------------|
D|-----7-----------7--------5~~~~~-----7-----------------|
A|--------5--7--8-------------------------8~~~--7h8p7p5--|
E|-------------------------------------------------------|

Bridge
e|----------------------------------------------|
B|----------------------------------------------|
G|--6-6-6-6--4-4-4-4--5-5-5-5-------------------|
D|--7-7-7-7--3-3-3-3--5-5-5-5--5-5-5-5-5-5-5-5--|
A|--7-7-7-7--3-3-3-3--3-3-3-3--5-5-5-5-5-5-5-5--|
E|--5-5-5-5--1-1-1-1-----------3-3-3-3-3-3-3-3--|

e|----------------------------------------------------------|
B|----------------------------------------------------------|
G|----------------------------------------------------------|
D|---------------5-5-5-5-5-5--7-7-7-7-7-7-------------------|
A|--7-7-7-7-7-7--3-3-3-3-3-3--5-5-5-5-5-5--7-7-7-7-7-7-7-7--|
E|--5-5-5-5-5-5----------------------------5-5-5-5-5-5-5-5--|

Solo
e|-----------------------------------------------------------------------------|
B|------------------------------------5h6p5-----5------------------------------|
G|--------------------5----------------------5-----5---------------------------|
D|--7-----5--------5-----5-----7h8p7------------------5-----7h8p7--------------|
A|-----5-----5--8--------------------------------------------------8--8--------|
E|--------------------------8----------------------------8---------------8--8--|

e|--------------------------------|
B|--------------------------------|
G|-----------------------------5--|
D|--------------------------------|
A|--7h8p7h8p7h8p7h8p7h8p7h8p7-----|
E|--------------------------------|

e|------------------------------------------------------------------------|
B|--9h10p9------9---------------------------------------------------------|
G|----------10-----10--9h10p9------9----------------9h10p9h10p9-----------|
D|-----------------------------10-----11--10~~~~~~---------------10~~~~~--|
A|------------------------------------------------------------------------|
E|------------------------------------------------------------------------|

e|-----------------------|
B|---------------9~~~~~--|
G|--9h10p9h10p9----------|
D|-----------------------|
A|-----------------------|
E|-----------------------|

e|---------------------------|
B|--12b--14b--15b--17b--19b--|
G|--12b--14b--15b--17b--19b--|
D|---------------------------|
A|---------------------------|
E|---------------------------|

Outro
e|-------------------------------------------------------|
B|-------------------------------------------------------|
G|--7-----------------5--7----------7--------------------|
D|-----7-----------7--------5~~~~~-----7-----------------|
A|--------5--7--8-------------------------8~~~--7h8p7p5--|
E|-------------------------------------------------------|
  development and support by
dmitry ivanov