rock
 
|tablatures   |lyrics   |discussion forums   |more tabs @ XGuitar.com

Bad Religion tabs

Evangeline bass tab

Band: Bad Religion
Song: Evangeline
Album: The process of belief
Tuning: Standard

Some people think that the bass verse riff is the same as the guitar but if you listen hard its in 8s

Intro
------------------
------------------
---2~------------- x1
------------------

Verse
---------------------------------------
---------------------------------------
---2-2-2-2-2-2-2-2--------------------- x4
-----------------------3-3-3-3-5-5-5-5-

Pre Chorus
-------------------------------------------------------------------
-------------------------------------------------------------------
--------------------5-5-5-5-5-5-5-5-------------------------------- x1
---3-3-3-3-3-3-3-3-------------------2-2-2-2-2-2-2-2--2-2-2--2-2-2-

Chorus
---------------------------------------
---------------------------------------
---5-5-5-5-5-5-5-5--------------------- x3
-----------------------3-3-3-3-5-5-5-5-

-----------------------------------
-----------------------------------
----------------------------------- x1
---7-7-7-7-7-7-7-7-7-7-7-7-7-7-7-7-

Verse

Chorus

Bridge
-------------------------------------
-------------------------------------
---7-7-7-7-7-7-7-7--3-3-3-3--5-5-5-5- x1
-------------------------------------

--------------------------------------
--------------------------------------
---7-7-7-7--5-5-5-5--3-3-3-3--2-2-2-2- x1
--------------------------------------

--------------------------------------------------------------------
--------------------------------------------------------------------
---0-0-0-0-0-0-0-0-0-0-0-0-0-0-0-0--2-2-2-2-2-2-2-2-2-2-2-2-2-2-2-2- x1
--------------------------------------------------------------------
(this bits just the pre chorus but twice as long)
--------------------------------------------------------------------
--------------------------------------------------------------------
------------------------------------5-5-5-5-5-5-5-5-5-5-5-5-5-5-5-5- x1
----3-3-3-3-3-3-3-3-3-3-3-3-3-3-3-3---------------------------------

-------------------------------------------------------------------
-------------------------------------------------------------------
------------------------------------------------------------------- x1
---2-2-2-2-2-2-2-2-2-2-2-2-2-2-2-2-2-2-2-2-2-2-2-2-2-2-2-2-2-2-2-2-

Chorus (in half speed and a tone up from usual)
-------------------------------
-------------------------------
---7--7--7--7------------------ x3
-----------------5--5--7--7----

-------------------
-------------------
---9-9-9-9-9-9-9-9- x1
-------------------

0utro
-----------------------------------------
-----------------------------------------
---4-4-4-4-4-4-4-4----------------------- x2
------------------------5-5-5-5--7-7-7-7-

---------------------------------------------
---------------------------------------------
---4----------------------------------------- x1
---------------------------------------------

please rate this tab thanks
  development and support by
dmitry ivanov