rock
 
|tablatures   |lyrics   |discussion forums   |more tabs @ XGuitar.com

Bad Religion tabs

Evangeline guitar tab

Artist:Artist:Bad Religion
Title:Evangeline
Album:The Progress of Belief
Transcribed by: jeremy hernalsteen
Email: jrmy685@yahoo.com
standard tuning


3x						 1x
-----------------------------  --------------------------|
-----------------------------  --------------------------|
---------9-------------7---7-  ---------9------PICKSLIDE-|
-9-9-9-9-9-9-7-5-5-5-7-7-7-7-  -9-9-9-9-9-9-7------------|
-9-9-9-9-7-9-7-5-5-5-7-5-7-5-  -9-9-9-9-7-9-7------------|
-7-7-7-7---7-5-3-3-3-5---5---  -7-7-7-7---7-5------------|

4x
-----------------------------
-----------------------------
---------9-------------7---7-
-9-9-9-9-9-9-7-5-5-5-7-7-7-7-
-9-9-9-9-7-9-7-5-5-5-7-5-7-5-
-7-7-7-7---7-5-3-3-3-5---5---
She came from heaven...

1x
-----------------------------------------------------------
-----------------------------------------------------------
-----------------7-7-7-7--------------------------PICKSLIDE
-5-5-5-5-5-5-5-5-7-7-7-7-7-7-7-7-4-4-4-4-4-4-4-4-----------
-5-5-5-5-5-5-5-5-5-5-5-5-7-7-7-7-4-4-4-4-4-4-4-4-----------
-3-3-3-3-3-3-3-3---------5-5-5-5-2-2-2-2-2-2-2-2-----------
 act sharp, but feel uncertain...

2x
-------------------------------
-------------------------------
-7-7-7-7-7-7-7-----------------
-7-7-7-7-7-7-7-5-5-5-5-7-7-7-7-
-5-5-5-5-5-5-5-5-5-5-5-7-7-7-7-
---------------3-3-3-3-5-5-5-5-
Evangeline...

1x
---------------------------------------------
---------------------------------------------
-7-7-7-7-7-7-7-------------------------------
-7-7-7-7-7-7-7-5-5-5-5-7-7-7-7-9-9-9-9-9-9-9-
-5-5-5-5-5-5-5-5-5-5-5-7-7-7-7-9-9-9-9-9-9-9-
---------------3-3-3-3-5-5-5-5-7-7-7-7-7-7-7-

6x
-----------------------------
-----------------------------
---------9-------------7---7-
-9-9-9-9-9-9-7-5-5-5-7-7-7-7-
-9-9-9-9-7-9-7-5-5-5-7-5-7-5-
-7-7-7-7---7-5-3-3-3-5---5---
(After 2x) Now just to be certain letís be sure...

1x
-----------------------------------------------------------
-----------------------------------------------------------
-----------------7-7-7-7--------------------------PICKSLIDE
-5-5-5-5-5-5-5-5-7-7-7-7-7-7-7-7-4-4-4-4-4-4-4-4-----------
-5-5-5-5-5-5-5-5-5-5-5-5-7-7-7-7-4-4-4-4-4-4-4-4-----------
-3-3-3-3-3-3-3-3---------5-5-5-5-2-2-2-2-2-2-2-2-----------
You act sure, but youíre uncertain...

2x
-------------------------------
-------------------------------
-7-7-7-7-7-7-7-----------------
-7-7-7-7-7-7-7-5-5-5-5-7-7-7-7-
-5-5-5-5-5-5-5-5-5-5-5-7-7-7-7-
---------------3-3-3-3-5-5-5-5-
Evangeline...

1x
---------------------------------------------
---------------------------------------------
-7-7-7-7-7-7-7-------------------------------
-7-7-7-7-7-7-7-5-5-5-5-7-7-7-7-9-9-9-9-9-9-9-
-5-5-5-5-5-5-5-5-5-5-5-7-7-7-7-9-9-9-9-9-9-9-
---------------3-3-3-3-5-5-5-5-7-7-7-7-7-7-7-


1x
----------------------------------------------------------------------------------------
----------------------------------------------------------------------------------------
-9-9-9-9-9-9-9-------------7-7-7-7-9-9-9-7-7-7-7-5-5-5-5-4-4-4-4-5-5-5-5-5-5-4-4-4-4-4--
-9-9-9-9-9-9-9-10-10-10-10-7-7-7-7-9-9-9-7-7-7-7-5-5-5-5-4-4-4-4-5-5-5-5-5-5-4-4-4-4-4--
-7-7-7-7-7-7-7-10-10-10-10-5-5-5-5-7-7-7-5-5-5-5-3-3-3-3-2-2-2-2-3-3-3-3-3-3-2-2-2-2-2--
---------------8--8--8--8---------------------------------------------------------------
Well thereís no use turning back...

2x
-------------------------------
-------------------------------
-7-7-7-7-7-7-7-----------------
-7-7-7-7-7-7-7-5-5-5-5-7-7-7-7-
-5-5-5-5-5-5-5-5-5-5-5-7-7-7-7-
---------------3-3-3-3-5-5-5-5-
(solo)

1x
---------------------------------------------
---------------------------------------------
-7-7-7-7-7-7-7-------------------------------
-7-7-7-7-7-7-7-5-5-5-5-7-7-7-7-9-9-9-9-9-9-9-
-5-5-5-5-5-5-5-5-5-5-5-7-7-7-7-9-9-9-9-9-9-9-
---------------3-3-3-3-5-5-5-5-7-7-7-7-7-7-7-

2x
---------------------------------
---------------------------------
-9-9-9-9-9-9-9-9-----------------
-9-9-9-9-9-9-9-9-7-7-7-7-9-9-9-9-
-7-7-7-7-7-7-7-7-7-7-7-7-9-9-9-9-
-----------------5-5-5-5-7-7-7-7-
(Slower) Evangeline...

1x
---------------------------------------------------------------------
---------------------------------------------------------------------
-9-9-9-9-9-9-9-9-----------------------------------------------------
-9-9-9-9-9-9-9-9-7-7-7-7-9-9-9-9-11-11-11-11-11-11-11-11-11-11-11-11-
-7-7-7-7-7-7-7-7-7-7-7-7-9-9-9-9-11-11-11-11-11-11-11-11-11-11-11-11-
-----------------5-5-5-5-7-7-7-7-9--9--9--9--9--9--9--9--9--9--9--9--

2x
-----------------------------------  ----
-----------------------------------  ----
-------------11--------------9---9-  ----
-11-11-11-11-11-11-9-7-7-7-9-9-9-9-  -11-
-11-11-11-11-9--11-9-7-7-7-9-7-9-7-  -11-
-9--9--9--9-----9--7-5-5-5-7---7---  -9--
  development and support by
dmitry ivanov