rock
 
|tablatures   |lyrics   |discussion forums   |more tabs @ XGuitar.com

Bad Religion tabs

Generator guitar tab

Generator
Transcription by Bruno Lamoureux. 

I just wrote the chords; find the rhythm by yourself... if someone has
tabbed the solo please email it to me!

Like a rock Like a planet Like a fucking atom bomb

|-0------------1--------------3------------------------------------------
|-1------------1--------------3-------------------------5--4-------------
|-2------------2--------------0-------------------------5--4-------------
|-2------------3--------------0-------------------------5--4-------------
|-0------------3--------------x-------------------------3--2-------------
|--------------1--------------3------------------------------------------

I've seen it...

|-0--1--3--0-|-0-0-0--1-0-1--0-0-0--3-3-3--|----------------|------------
|-1--1--3--0-|-1-0-1--1-0-1--1-0-1--3-3-3--|-------------4--|------------
|-2--2--0--1-|-2-2-2--2-2-2--0-0-0--0-2-0--|-2-3-5-3-5-2-3--|------------
|-2--3--0--2-|-2-2-2--3-3-3--2-2-2--0-0-0--|-2-3-5-3-5-2-1--|------------
|-0--3--x--2-|-0-0-0--3-3-3--3-3-3--x-x-x--|-0-1-3-1-3-0(1)-|------------
|----1--3--0-|--------1-1-1---------3-3-3--|----------------|------------

oh yeah..

|-0--1--3--------0--1--3--0--|-------------------------------------------
|-1--1--3--5--4--1--1--3--0--|-------------------------------------------
|-2--2--0--5--4--2--2--0--1--|-------------------------------------------
|-2--3--0--5--4--2--3--0--2--|-------------------------------------------
|-0--3--x--3--2--0--3--x--2--|-------------------------------------------
|----1--3-----------1--3--0--|-------------------------------------------
  development and support by
dmitry ivanov