rock
 
|tablatures   |lyrics   |discussion forums   |more tabs @ XGuitar.com

Bad Religion tabs

Give You Nothing bass tab

artist: bad religion
song: Give You Nothing 
  Riff 1 
|-----------------|--------------|| 
|-----------------|-0-0-0--------|| 
|-7-7-7--10-10-10-|--------0-0-0-|| 
|-----------------|--------------|| 

  Riff 2 
|---------|---------|---------|| 
|---------|---------|---------|| 
|-3 x 8---|-2-2-2-2-|-1-1-1-1-|| 
|---------|---------|---------|| 

  Riff 3 
|---------|---------|---0-1-|| 
|-2-2-----|-0-0-----|-4-----|| 
|---------|-----0---|-------|| 
|-----3-3-|---------|-------|| 

  Fill 1 
|---------|---------|| 
|---------|---------|| 
|-3 x 8---|-5 x 8---|| 
|---------|---------|| 
  

  Fill 2 (in the end of the song) 
|-------0-|-------0-|---0-----|---------|| 
|---2-3---|---2-3---|-----3-2-|---3-3-2-|| 
|-3-------|-3-------|-2-------|-1-------|| 
|---------|---------|---------|---------|| 

Tabbed by Tony Casement
  development and support by
dmitry ivanov