rock
 
|tablatures   |lyrics   |discussion forums   |more tabs @ XGuitar.com

Bad Religion tabs

Give You Nothing guitar tab

GIVE YOU NOTHING


Tabbed out by Durnin


this song is very easy to learn and play.
hope you enjoy!

------------------------------------------------------------------
------------------------------------------------------------------
-9-9-9/12-12-12\7-7-7---------------------------------------------
-9-9-9/12-12-12\7-7-7-7-7-7---------------------------------------
-7-7-7/10-10-10\5-5-5-7-7-7---------------------------------------
----------------------5-5-5---------------------------------------
 this is the intro&verse:play along with song you'll get it

---------------------------------|--------------------------------
---------------------------------|-*--------------------------*---
-5-5-5-5-5-5-5-4-4--3-3-3-3-3-3--|--9-9-9/12-12-12\7-7-7----------
-5-5-5-5-5-5-5-4-4--3-3-3-3-3-3--|--9-9-9/12-12-12\7-7-7-7-7-7----
-3-3-3-3-3-3-3-2-2--1-1-1-1-1-1--|--7-7-7/10-10-10\5-5-5-7-7-7----
---------------------------------|-----------------------5-5-5----
 so i give you me   i give you  nothing     *repeat twice*

----------------------------------|--------------------------------|----------
----------------------------------|--------------------------------|----------
-5-5-5-5-5-5-5-5-5-5-5-5-5-5-5-5-5|--------------------------------|----------
-5-5-5-5-5-5-5-5-5-5-5-5-5-5-5-5-5|--------------------------------|----------
-3-3-3-3-3-3-3-3-3-3-3-3-3-3-3-3-3|--------------------------------|----------
----------------------------------|--------------------------------|----------
 i give you me i give you nothing!  play the verse and chorus again  bridge: 

------------------------------------------------------------------
------------------------------------------------------------------
-9-9---------12-12------7-7---------------------------------------
-9-9---------12-12------7-7--------------7-7----------------------
-7-7---------10-10------5-5--------------7-7----------------------
-----------------------------------------5-5----------------------
 respectable dispicable it seems all the same**repeat this until "NO!"

------------------------------------------------------------------
------------------------------------------------------------------
--5-5-5-5-5-5-5-5-5-5-5-5-5-5-5/7-7-7-7-7-7-7-7-7-7-7-7-7-7-------
--5-5-5-5-5-5-5-5-5-5-5-5-5-5-5/7-7-7-7-7-7-7-7-7-7-7-7-7-7-------
--3-3-3-3-3-3-3-3-3-3-3-3-3-3-3/5-5-5-5-5-5-5-5-5-5-5-5-5-5-------
------------------------------------------------------------------
  palm mute-----------------------------------end palm mute                  

------------------------------------------------------------------
------------------------------------------------------------------
------------------------------------------------------------------
------------------------------------------------------------------
------------------------------------------------------------------
------------------------------------------------------------------
 repeat verse and chorus&play chorus 2x's


[Document End]
  development and support by
dmitry ivanov