rock
 
|tablatures   |lyrics   |discussion forums   |more tabs @ XGuitar.com

Bad Religion tabs

God Song guitar chords

God Song
Transcription by Derek/Flats, flatline@stic.net.

Rhythm 1: F C# F D# C F (tabs at bottom)
Rhythm 2: D#
F C# F
D# C

(Rhythm 1 x2)
And did those feet in ancient times trod
on america's pastures of green
and did that anthropocentric god wane
with its thoughts and beliefs all unseen
(Rhythm 2 x1)
i don't think so
he's up there with the others laying low
vying with those who you've traded
your life to bless your soul

(Rhythm 1 x2)
and have they told you how to think
cleansed your mind of sepsis and autonomy
or have you escaped scrutiny
and regaled yourself with depravity
(Rhythm 2 x1)
now we all see
religion's just senthetic frippery
unecessary
in our expanding global cultural effiecency

SOLO
e---------------------------------------------------------------
B----11-13--14-14--13----13-11----11----------------------11----
G-13---------------------------13-----12-10----10--12-13--------
D-------------------------------------------13------------------
A---------------------------------------------------------------
E---------------------------------------------------------------

e---------------------------------------------------------------
B-14p13p11-14p13p11-14p13p11-14p13p11--14Bend----p13p11---------
G--------------------------------------------------------13-10--
D---------------------------------------------------------------
A---------------------------------------------------------------
E---------------------------------------------------------------

e---------------------------------------------------------------
B----------11-11-11-11-11----11---------------------------------
G----10-13----------------13----13-10---------------------------
D-13------------------------------------------------------------
A---------------------------------------------------------------

(Rhythm 2 x1)
and don't you fear
this impasse we have built to our future
ever so near,
and oh so austere

INTRO and OUTRO
e---------------------------------------------------------------
B---------------------------------------------------------------
G-10-10-10-------------10-10-10---8-----------------------------
D-10-10-10--11-11-11---10-10-10---8--10-------------------------
A-8--8--8---11-11-11---8--8--8----6--10-------------------------
E-----------9--9--9------------------8--------------------------

VERSE
RHYTHM 1:
e---------------------------------------------------------------
B---------------------------------------------------------------
G-10-10------------10-10----8-8-----------10-10-----------------
D-10-10-x-11--11-x-10-10----8-8-x-10-10-x-10-10-----------------
A-8--8--x-11--11-x-8--8-----6-6-x-10-10-x-8--8------------------
E---------9---9-------------------8--8--------------------------

RHYTHM 2:
e---------------------------------------------------------------
B---------------------------------------------------------------
G-8-8-8-8-8-8-8-8-8-8-8--10-10-----------10-10------------------
D-8-8-8-8-8-8-8-8-8-8-8--10-10-x-11-11-x-10-10------------------
A-6-6-6-6-6-6-6-6-6-6-6--8--8--x-11-11-x-8--8-------------------
E--------------------------------9--9---------------------------

e------------------------------------------------------------
B------------------------------------------------------------
G-8-8-8-8-8-8-8-8-8------------------------(10--------------- )
D-8-8-8-8-8-8-8-8-8---10-10-10-10-10-10----(10--played before solo)
A-6-6-6-6-6-6-6-6-6---10-10-10-10-10-10----(8---------------- )
E---------------------8--8--8--8--8--8-----------------------

****
This is the Against the grain version,
to play the Tested version drop the key one full step
..in other words F C# F becomes D# B D# etc.
i think i made the tab a little more complex than it
really is, any comments mail me: flatline@stic.net
  development and support by
dmitry ivanov