rock
 
|tablatures   |lyrics   |discussion forums   |more tabs @ XGuitar.com

Bad Religion tabs

Gods Love bass tab

Artist: Bad Religion
Song: God's Love
Album: The Empire Strikes First

Easy and cool song, regular tuning.

Let ring: ~
Stress on the note: ^

Verse:
G|---------------------------------------------|
D|------------1-11-111-------------------------|
A|-------111------------------111---3-33-333---|
E|--33--------------------33-------------------|

Chorus:
G|----------------------------------------------------------------------
D|----------------------------------------------------------------------
A|------------------1111111111111-3------------------1-3333333333333333-
E|-3-3-33333333333-------------------11111111111111---------------------
   ^ ^

Chorus Continued:
G|----------------------------------------------------------------------|
D|----------------------------------------------------------------------|
A|--------------------1111111111111-3----------------1-3333333333333333-|
E|-Pause--3-333333333-----------------11111111111111--------------------|
          ^

Part After Chorus:
G|----------------------------------|
D|-11111111-3333333333-111-333333---|
A|----------------------------------|
E|----------------------------------|

Bridge:
G|------------------------------------------------------------------------------|
D|-55~-----55~-----5~-------55~---------5~--------------------------------------|
A|-------------------------------6-5~--------6-5~------6~------5-6~-------------|
E|--------------------------------------------------------6-5~------6-5~---1-3--|

Outro:
G|---------------------------------------------|
D|------------1-11-111-------------------------|
A|-------111------------------111---3-33-333---|
E|--33--------------------33-------------------|

Ending:
G|------------|
D|------------|
A|------------|
E|-4-4--------|

That's it.

Questions or comments?
vanceaase67@hotmail.com
  development and support by
dmitry ivanov