rock
 
|tablatures   |lyrics   |discussion forums   |more tabs @ XGuitar.com

Bad Religion tabs

Gods Love guitar tab

God's Love
Bad Religion - God's Love

tabbed by: Bert Molenaar (aka Part III / PIII)
and: Jens Holgard


[Verse]:
G A# D#
G A# C(high)


[chorus]:
G A# F C(high) 2x
D# F(high)

fill (guitar 2 plays the verse cords):

^ = bend a full step
* = (full bend to 7 and "stay there")
r = release bend
p = pull off
h = hammer on

e|-------------------------------
B|-------------------------------
G|--5^*77777777rp3-------3---3h5-
D|----------------5-3h555-555----
A|-------------------------------
E|-------------------------------

e|-------------------------------
B|-------------------------------
G|--5^*77777777rp3-------3-------
D|----------------5-3h555-555----
A|---------------------------3---
E|-------------------------------

[Verse]

Bridge:

one of the guitars plays something like this in the bridge:

e|------------------
B|------------------ etc, ends on: G~~ F~~ G~~ F~~
G|-12----12----12---  <-- or continue with this]
D|----11----11----11
A|------------------
E|------------------

after that pick slide right back into the chorus.

enjoy
  development and support by
dmitry ivanov