rock
 
|tablatures   |lyrics   |discussion forums   |more tabs @ XGuitar.com

Bad Religion tabs

Heaven Is Falling bass tab

Heaven is Falling  Bad Religion (Generator)

Intro (0:00)

G|-----------------------------|
D|------0-0----------------0---|
A|-----------0-0--0--2--3------|
E|-3-3-------------------------|

G|-----------------------------|
D|------0-0--------------------|
A|-----------3-3-3-3-3-3--5-5--|
E|-3-3-------------------------|

Verse (0:08)

G|-----------------------------|
D|------0-0--------------------|
A|-----------0-0-0-0-0-0-0-0---| (x3)
E|-3-3-------------------------|

G|-----------------------------|
D|------0-0--------------------|
A|-----------3-3-3-3-3-3--5-5--|
E|-3-3-------------------------|

G|-----------------------------|
D|------0-0----------------0---|
A|-----------0-0--0--2--3------| (x2)
E|-3-3-------------------------|

Pre-Chorus (0:28)

G|-----------------------------|
D|------0-0--------------3-----|
A|-----------3-3-3-3-----------|
E|-3-3---------------1-1-------|

G|-----------------------------|
D|-----------------------------|
A|-3-5-5-3-5-5-3-5-5-3-5-5-----|
E|-----------------------------|

Chorus (0:36)

G|----------------------------------|
D|----------------------------------|
A|---------5-5-5-5---------3-3-3-3--| (x2)
E|-3-3-3-3---------5-5-5-5----------|

G|-------------------------------------------|
D|-------------------------------------------|
A|---------5-5-5-5-3-3-3-3-------------------|
E|-3-3-3-3-----------------1-1-1-1-1-1-1-1---|

Guitar Solo (0:49)

G|-----------------------------|

D|------0-0----------------0---|
A|-----------0-0--0--2--3------| (x2)
E|-3-3-------------------------|

G|-------------------------------------------|
D|-------------------------------------------|
A|---------5-5-5-5-3-3-3-3-------------------|
E|-3-3-3-3-----------------1-1-1-1-1-1-1-1---|

Verse (1:01)

G|-----------------------------|
D|------0-0----------------0---|
A|-----------0-0--0--2--3------| (x2)
E|-3-3-------------------------|

Pre-Chorus (1:08)

G|-----------------------------|
D|------0-0--------------3-----|
A|-----------3-3-3-3-----------|
E|-3-3---------------1-1-------|

G|-----------------------------|
D|-----------------------------|
A|-3-5-5-3-5-5-3-5-5-3-5-5-----|
E|-----------------------------|

Chorus (1:16)

G|----------------------------------|
D|----------------------------------|
A|---------5-5-5-5---------3-3-3-3--| (x2)
E|-3-3-3-3---------5-5-5-5----------|

G|-------------------------------------------|
D|-------------------------------------------|
A|---------5-5-5-5-3-3-3-3-------------------|
E|-3-3-3-3-----------------1-1-1-1-1-1-1-1---|

Outro (1:28)

G|-----------------------------|
D|------0-0----------------0---|
A|-----------0-0--0--2--3------| (x4)
E|-3-3-------------------------|

On last (4th) time play:

G|----------------------------------|
D|------0-0-------------------------|
A|-----------0----------------------|
E|-3-3---------1-1-1-1-1-1-1-1-3~~~-|

~=let ring

END!

Any probs email me:- daniel_goodman@hotmail.com
  development and support by
dmitry ivanov