rock
 
|tablatures   |lyrics   |discussion forums   |more tabs @ XGuitar.com

Bad Religion tabs

I Want To Conquer The World bass tab

tompunk@hotmail.com

VERSE
G------------------------------------------------------------------------------------
D------------------------------22--------------------------22------------------------
A--4-4-4-4-4-4--22-0-0-0-0-0-0----4-4-4-4-4-4--2-2-0-0-0-0----2-2--------------------
E------------------------------------------------------------------------------------

INTRO CHOROUS
G------------------------------------------------------------------------------------
D------------------------------------------------------------------------------------
A---0-0-0-0--2-2-2-2--3-3-3-3--------------------------------------------------------
E------------------------------------------------------------------------------------
CHOROUS
G------------------------------------------------------------------------------------
D-----------------------------------------2-2-2-2-2-2--------------------------------
A--4-4-4-4-4-4--2-2-2-2-2-2--0-0-0-0-0-0---------------4-4-4-4-4-4--2-2-2-2-2-2--0-0-0-0-0-0--2-2-2-2-2-2
CHOROUS ENDING
G------------------------------------------------------------------------------------
D------------------------------------------------------------------------------------
A--4-4-4-4-4-4-4-4-------------------------------------------------------------------
E------------------------------------------------------------------------------------
OUTRO (YOU SHOULD PLAY IT FOUR TIMES)
G------------------------------------------------------------------------------------
D----------------------------------------2-2-2-2-2-2--------------------------------
A-4-4-4-4-4-4--2-2-2-2-2-2--0-0-0-0-0-0----------------------------------------------
AND YOU MUST FINISH WITH THE NOTE 4

tompunk@hotmail.com
  development and support by
dmitry ivanov