rock
 
|tablatures   |lyrics   |discussion forums   |more tabs @ XGuitar.com

Bad Religion tabs

Kyoto Now bass tab

Artist: Bad Religion
Song: Kyoto Now
Album: Process of Belief
Instrument: Bass
Tuning: Standard
Tabbed by: Spidey255

Guitar-hogged intro

Verse (start at 0:41)     "This world's going..."
G|-----------------------|-----------------|
D|-----------------------|-----------------|
A|-------4444----44-6666-|-8888-4444-66666-|
E|-11-44------44---------|-----------------|

Chorus
G|------------------------|
D|------------------------|
A|------4444---3-4-66-4-3-|
E|-6666------44-----------|

Post Chorus
G|----------------|-----|
D|----------------|-----|
A|---------33-4-3-|-----|
E|-1-1-3-1--------|-10\-|

Verse 2x
G|-------------------------------|
D|-------------------------------|
A|-5555----0-1-2-33-2-3-55-2-3-5-|
E|------11-----------------------|

G|--------------------------------------------------|
D|--------------------------------------------------|
A|-5-8-10-10-12----12-13-15-------10-12-12-12-12-12-|
E|--------------13----------15-13-------------------|

G|----------12-14-12-------------------------------|
D|-12-12-15----------15-14-12-10-------------------|
A|-------------------------------12----------------|
E|----------------------------------13-10-10-10-10-|

-1st verse
-prechorus
-chorus

Post Chorus
G|------------------------|
D|------------------------|
A|------------------------|
E|-1111-3-111111-33-55-66-|

Guitar Solo
G|-----------------------|-------------------------|
D|-----------------------|-------------------------|
A|-----------4444-66-4-3-|-8888888-8-6-------------|
E|-6666-4444-------------|-------------9-8-9-8-6-4-|

-chorus

Ending
G|-------------------------------|
D|-------------------------------|
A|----------4444-666666666666----|
E|-11111111-------------------6~-|
  development and support by
dmitry ivanov