rock
 
|tablatures   |lyrics   |discussion forums   |more tabs @ XGuitar.com

Bad Religion tabs

Kyoto Now guitar tab

Bad Religion - Kyoto Now!
Tabbed By: GuitarBurst05
Email: guitarburst05@hotmail.com

Tuning: Standard (E A D G B E)



Not my first tab.. but still fairly new at this stuff.. forgive me, lol.
I'm startin to get the hang of it now, though, and I'm gettin into it.

He strums a lot more than I'm putting in. If nothing else, you can
add an upstroke to every chord I put in. It's just too tedious to type
every single stroke.

Intro Riff x2

E|------------------------------------||
B|------------------------------------||
G|------------------------9-9-9-10-9--||
D|--7-7-7-7--10-10-10-10--7-7-7--8-7--||
A|--5-5-5-5---8--8--8--8--------------||
E|------------------------------------||

E|------------------------------------||
B|------------------------------------||
G|--7-7-7-7---------------------------||
D|--5-5-5-5--8-8-8-8--5-5-7-8-7-------||
A|-----------6-6-6-6--3-3-5-6-5-------||
E|------------------------------------||

Pre Verse x5

E|---------------------------------------------------------||
B|---------------------------------------------------------||
G|---------------------------------------------------------||
D|--7-7-7-7-10--5-5-5-5-7----------------------------------||
A|--5-5-5-5--8--3-3-3-3-5----------------------------------||
E|---------------------------------------------------------||

1st Verse x4

E|---------------------------------------------------------||
B|---------------------------------------------------------||
G|-------5-6--------6-7------------------------------------||
D|--3-3--5-6---6-6--6-7------------------------------------||
A|--3-3--3-4---6-6--4-5------------------------------------||
E|--1-1--------4-4-----------------------------------------||

Pre Chorus x1

E|---------------------------------------------------------||
B|---------------------------------------------------------||
G|--10-10-10-10-----------8-8-8-8-8------------------------||
D|--10-10-10-10--6-6-6-6--8-8-8-8-8------------------------||
A|---8--8--8--8--6-6-6-6--6-6-6-6-6------------------------||
E|---------------4-4-4-4-----------------------------------||

Chorus x4

E|---------------------------------------------------------||
B|---------------------------------------------------------||
G|-----------6-6-6-6-----------8-8-8-8---------------------||
D|--8-8-8-8--6-6-6-6--6-6-6-6--8-8-8-8---------------------||
A|--8-8-8-8--4-4-4-4--6-6-6-6--6-6-6-6---------------------||
E|--6-6-6-6-----------4-4-4-4------------------------------||

Post Chorus

E|---------------------------------------------------------||
B|---------------------------------------------------------||
G|---------------------------------------------------------||
D|--10-10-10-11-10--5-5-5-6-5------------------------------||
A|---8--8--8--9--8--3-3-3-4-3------------------------------||
E|---------------------------------------------------------||

Pre Verse x5

E|---------------------------------------------------------||
B|---------------------------------------------------------||
G|---------------------------------------------------------||
D|--7-7-7-7-10--5-5-5-5-7----------------------------------||
A|--5-5-5-5--8--3-3-3-3-5----------------------------------||
E|---------------------------------------------------------||

2nd Verse x4

E|---------------------------------------------------------||
B|---------------------------------------------------------||
G|-------5-6--------6-7------------------------------------||
D|--3-3--5-6---6-6--6-7------------------------------------||
A|--3-3--3-4---6-6--4-5------------------------------------||
E|--1-1--------4-4-----------------------------------------||

Pre Chorus x1

E|---------------------------------------------------------||
B|---------------------------------------------------------||
G|--10-10-10-10-----------8-8-8-8-8------------------------||
D|--10-10-10-10--6-6-6-6--8-8-8-8-8------------------------||
A|---8--8--8--8--6-6-6-6--6-6-6-6-6------------------------||
E|---------------4-4-4-4-----------------------------------||

Chorus x8

E|---------------------------------------------------------||
B|---------------------------------------------------------||
G|-----------6-6-6-6-----------8-8-8-8---------------------||
D|--8-8-8-8--6-6-6-6--6-6-6-6--8-8-8-8---------------------||
A|--8-8-8-8--4-4-4-4--6-6-6-6--6-6-6-6---------------------||
E|--6-6-6-6-----------4-4-4-4------------------------------||

Post Chorus

E|---------------------------------------------------------||
B|---------------------------------------------------------||
G|---------------------------------------------------------||
D|--10-10-10-10-10-10-10-10--10-11-12-13-------------------||
A|---8--8--8--8--8--8--8--8---8--9-10-11-------------------||
E|---------------------------------------------------------||

~*~SOLO~*~

Dunno the solo... Sorry. I'm not quite that talented yet.

This is what's played during it.

Solo x4

E|---------------------------------------------------------||
B|---------------------------------------------------------||
G|----------------------6-6-6-6--8-8-8-8-------------------||
D|--8-8-8-8----6-6-6-6--6-6-6-6--8-8-8-8-------------------||
A|--8-8-8-8----6-6-6-6--4-4-4-4--6-6-6-6-------------------||
E|--6-6-6-6----4-4-4-4-------------------------------------||

E|---------------------------------------------------------||
B|---------------------------------------------------------||
G|---------------------------------------------------------||
D|--10-10-10-10-10-10-10-10--10-8-6------------------------||
A|---8--8--8--8--8--8--8--8---8-6-4-8----------------------||
E|----------------------------------6----------------------||

Chorus x8

E|---------------------------------------------------------||
B|---------------------------------------------------------||
G|-----------6-6-6-6-----------8-8-8-8---------------------||
D|--8-8-8-8--6-6-6-6--6-6-6-6--8-8-8-8---------------------||
A|--8-8-8-8--4-4-4-4--6-6-6-6--6-6-6-6---------------------||
E|--6-6-6-6-----------4-4-4-4------------------------------||

Post Chorus

E|---------------------------------------------------------||
B|---------------------------------------------------------||
G|---------------------------------------------------------||
D|--10-10-10-10-10-10-10-10--6-6-6-6--8-8-8-8-8-8-8-8------||
A|---8--8--8--8--8--8--8--8--4-4-4-4--6-6-6-6-6-6-6-6------||
E|---------------------------------------------------------||

End On


E|-------------------||
B|-------------------||
G|-------------------||
D|--8~~~~------------||
A|--8~~~~------------||
E|--6~~~~------------||

~GuitarBurst05
  development and support by
dmitry ivanov