rock
 
|tablatures   |lyrics   |discussion forums   |more tabs @ XGuitar.com

Bad Religion tabs

Land Of Competition bass tab

SONG: Land of Competition (#6)
BAND: Bad Religion
ALBUM: Suffer
TABBER: iknowflea

I canít believe this wasnít tabbed either.  For some reason,
this song took me forever to figure out, but itís
so much fun to play.  Enjoy!

INTRO:
G:--------------------02-------------------0---------------
D:-2222222222-000000-4---2222222222-000000--40-------------
A:---------------------------------------------------------
E:---------------------------------------------------------

VERSE:
G:--------------------02---------------------------------
D:-2222222222-000000-4-----------------------------------
A:-------------------------------------------------------X3
E:-------------------------------------------------------

G:-------------------20------------------------------------
D:-2222222222-000000---40----------------------------------
A:---------------------------------------------------------
E:---------------------------------------------------------

CHORUS:
G:---------------------------------------------------------
D:-------------------------------------------5-------------
A:-3333-2---0-55555-77777-33333-55555-77777-7-75-----------
E:-------023-----------------------------------------------

G:---------------------------------------------------------
D:---------------------------------------------------------
A:-3333-2----0-55555-77777-33333-55555-77777---------------
E:--------023----------------------------------------------

INTRO
VERSE
CHORUS

BRIDGE:
G:-------------------------------------------------------
D:-22222222-00000000-------------------------------------
A:-------------------------------------------------------X3
E:-------------------------------------------------------

G:-------------------20------------------------------------
D:-22222222-00000000---40----------------------------------
A:---------------------------------------------------------
E:---------------------------------------------------------

VERSE
CHORUS
INTRO

OUTRO:
G:-------------------------------------------------------
D:--------------------5----------------------------------
A:-33333-55555-77777-7-75--------------------------------X3
E:-------------------------------------------------------

G:---------------------------------------------------------
D:---------54----------------------------------------------
A:-3333-55-------------------------------------------------
E:---------------------------------------------------------

Whew! This is a very challenging Bad Religion song and
is one of the best on Suffer. Pleasant rocking, fellow
tabbers!
  development and support by
dmitry ivanov