rock
 
|tablatures   |lyrics   |discussion forums   |more tabs @ XGuitar.com

Bad Religion tabs

Let Them Eat War guitar tab

"Let Them Eat War"
Tabbed By:Ronny

E------------------------------------------------------------------
B------------------------------------------------------------------
G-------------------------------------------------------------0~~~-
D--5-7-9 9/10-9-9-10-12-12/14-12-10h12-10-9-9/10-9-5h7h9-5h7-------
A------------------------------------------------------------------
E------------------------------------------------------------------

Verse + Rap bit + Intro Chords
G - F - A - G

Chorus
D# - C - G x2
D# - C - G - A#
D# - F(high) - G(high)

Solo
E-------------------------------------------------------------------------12-----10~~~~-
B-----------------------------------------------8---8~~~~~~~~--------12-----------------
G-------------------------------------------------9---------------------12--------------
D-----4/5----9--10-12-9-10-9---9----7-5-7-7-7h9-----------------------------------------
A--SEE NOTE------------------12----------------------------------Could be played--------
E-----------------------------------------------------------------as Harmonics----------
Note: There is lots of sliding and hammer-ons/pull offs in the first part of the solo,
play it how you want. but those are the two notes used: F# and G.
End
First part of intro
G

During the rap, each chord is hit once, and left to ring for the bar.
  development and support by
dmitry ivanov