rock
 
|tablatures   |lyrics   |discussion forums   |more tabs @ XGuitar.com

Bad Religion tabs

Los Angeles Is Burning bass tab

Song:  Los Angeles is burning
Band: Bad Religion
Pfiestdog007@yahoo.com
YE AH!
This is a kick-as song man I canít believe SOMEBODY didnít tab this, so I did
I tried to get as close as possible, if you think you can do better, horah! For you.

Intro
G -------------------------------------------------
D ----------3--------3---------3----------3------
A--33333-------33333----33333-----33333---------   x2
E--------------------------------------------------

Verse:
G --------------------------------------------------------------
D-------------------3333--------------------------------------
A---3333333333-------------3333-0000--3333----------------
E------------------------------------------------3333333333
 								X2
G --------------------------------------------------------------
D-------------------3333--------------------------------------
A---3333333333--------------3333-00000000------------------
E------------------------------------------------33333333---

 Bridge
G ---------------------------------
D ------------3-------------------
A---33333--------33333-2-1------
E----------------------------------


Chorus
G -----------------------------------------------------------------------
D -----------------------------------------------------------------------
A-----00000000------------------------------3--3-2-----------------             x2
E-------------------33333333---11111111--------------------------


G ------------------------------------------------------------
D --------------------------------22222222-33333333----
A-----00000000---------------------------------------------
E-------------------33333333--------------------------------

G ------------------------------------------------------------------------
D --------------------------------------3--------3-----------3--------3--
A----00000000--------------------33333-----33333------33333----33333----
E-----------------33333333--------------------------------------------

Repeat in order
Verse
Bridge
Chorus

Bridge
G --3-2-0------------2--0------------------------------------------
D ----------3-0-------------2--0----------------------2-0----------
A---------------0--2-------------2-3-2-0------3--2--------3---0---2-
E----------------------------------------------------------------------

The guitar solo is mostly the verse, but when the guitar goes into the high parts
Of the song (which is about 2:40), that is when you start playing the intro THENÖ

Chorus
G -----------------------------------------------------------------------
D -----------------------------------------------------------------------
A-----00000000------------------------------3--3-2-----------------             x2
E-------------------33333333---11111111--------------------------


G ------------------------------------------------------------
D --------------------------------22222222-33333333----
A-----00000000---------------------------------------------
E-------------------33333333--------------------------------

G ------------------------------------------------------------------------
D --------------------------------------3--------3-----------3--------3--
A----00000000------------------33333------33333-----33333-------33333----
E-----------------33333333--------------------------------------------

End note
G--
D--
A--3--
E-

It took me forever to get this, so enjoy

LAUREN AND ALIXANDRA OWN.
  development and support by
dmitry ivanov