rock
 
|tablatures   |lyrics   |discussion forums   |more tabs @ XGuitar.com

Bad Religion tabs

Los Angeles Is Burning guitar tab

Bad Religion - Los Angeles is Burning
Tabbed By: GuitarBurst05
Email: guitarburst05@hotmail.com

Tuning: Standard (E A D G B E)

I got lazy at the end and didn't write it all out. Still, a really
simple song. I even put in a crappy solo.

E|-----------------------------------------------------||
B|-----------------------------------------------------||
G|--------------5---------------5--------------5-------||
D|--5-5-5-5-5-5-3---5-5-5-5-5-5-3--------------3---5~--||
A|--3-3-3-3-3-3----3-3-3-3-3-3-----3-3-3-3-3-3-----3~--||
E|-----------------------------------------------------||



E|--------------------------------------------------------------------||
B|--------------------------------------------------------------------||
G|--5-5-5-5-5-5-5-5---------5-5-5-5--2-2-2-2-5-5-5-5------------------||
D|--5-5-5-5-5-5-5-5-3-3-3-3-5-5-5-5--2-2-2-2-5-5-5-5-5-5-5-5-5-5-5-5--||
A|--3-3-3-3-3-3-3-3-3-3-3-3-3-3-3-3--0-0-0-0-3-3-3-3-5-5-5-5-5-5-5-5--||
E|------------------1-1-1-1--------------------------3-3-3-3-3-3-3-3--||

E|--------------------------------------------------------------------||
B|--------------------------------------------------------------------||
G|--5-5-5-5-5-5-5-5---------5-5-5-5--2-2-2-2-2-2-2-2------------------||
D|--5-5-5-5-5-5-5-5-3-3-3-3-5-5-5-5--2-2-2-2-2-2-2-2-5-5-5-5-5-5-5-5--||
A|--3-3-3-3-3-3-3-3-3-3-3-3-3-3-3-3--0-0-0-0-0-0-0-0-5-5-5-5-5-5-5-5--||
E|------------------1-1-1-1--------------------------3-3-3-3-3-3-3-3--||

E|--------------------------------------------------------------------||
B|--------------------------------------------------------------------||
G|--5-5-5-5-5-5-5-5---------5-5-5-5--2-2-2-2-5-5-5-5------------------||
D|--5-5-5-5-5-5-5-5-3-3-3-3-5-5-5-5--2-2-2-2-5-5-5-5-5-5-5-5-5-5-5-5--||
A|--3-3-3-3-3-3-3-3-3-3-3-3-3-3-3-3--0-0-0-0-3-3-3-3-5-5-5-5-5-5-5-5--||
E|------------------1-1-1-1--------------------------3-3-3-3-3-3-3-3--||

E|----------------------------------------------------------------||
B|----------------------------------------------------------------||
G|--5-5-5-5-5-5-5-5---------5-5-5-5--2-2-2-2----------------------||
D|--5-5-5-5-5-5-5-5-3-3-3-3-5-5-5-5--2-2-2-2-5-5-5-5-5-5-5-5------||
A|--3-3-3-3-3-3-3-3-3-3-3-3-3-3-3-3--0-0-0-0-5-5-5-5-5-5-5-5------||
E|------------------1-1-1-1------------------3-3-3-3-3-3-3-3------||

Pre-Chorus

E|--------------------------------------------------------||
B|--------------------------------------------------------||
G|--------------5-----------------------------------------||
D|--5-5-5-5-5-5-3--5-5-5-5-5-5-5-5------------------------||
A|--3-3-3-3-3-3----3-3-3-3-3-3-3-3------------------------||
E|--------------------------------------------------------||

Chorus

E|-------------------------------------------------------------------||
B|-------------------------------------------------------------------||
G|--2-2-2-2-2-2-2-2---------------------------------5-5-5-5-5-5-5-5--||
D|--2-2-2-2-2-2-2-2-5-5-5-5-5-5-5-5-3-3-3-3-3-3-3-3-5-5-5-5-5-5-5-5--||
A|--0-0-0-0-0-0-0-0-5-5-5-5-5-5-5-5-3-3-3-3-3-3-3-3-3-3-3-3-3-3-3-3--||
E|------------------3-3-3-3-3-3-3-3-1-1-1-1-1-1-1-1------------------||
 ..hills...       ..Angeles..     ..burning..
E|-------------------------------------------------------------------||
B|-------------------------------------------------------------------||
G|--2-2-2-2-2-2-2-2---------------------------------5-5-5-5-5-5-5-5--||
D|--2-2-2-2-2-2-2-2-5-5-5-5-5-5-5-5-3-3-3-3-3-3-3-3-5-5-5-5-5-5-5-5--||
A|--0-0-0-0-0-0-0-0-5-5-5-5-5-5-5-5-3-3-3-3-3-3-3-3-3-3-3-3-3-3-3-3--||
E|------------------3-3-3-3-3-3-3-3-1-1-1-1-1-1-1-1------------------||
                  ..candles..    ..murder..
E|-------------------------------------------------------------------||
B|-------------------------------------------------------------------||
G|--2-2-2-2-2-2-2-2-----------------5-5-5-5-5-5-5-5------------------||
D|--2-2-2-2-2-2-2-2-5-5-5-5-5-5-5-5-5-5-5-5-5-5-5-5-3-3-3-3-3-3-3-3--||
A|--0-0-0-0-0-0-0-0-5-5-5-5-5-5-5-5-3-3-3-3-3-3-3-3-3-3-3-3-3-3-3-3--||
E|------------------3-3-3-3-3-3-3-3-----------------1-1-1-1-1-1-1-1--||
  ..lives..                      ..stars..        ..ease..


E|------------------------------------------------------------------||
B|------------------------------------------------------------------||
G|--2-2-2-2-2-2-2-2-----------------------------5-------------------||
D|--2-2-2-2-2-2-2-2-5-5-5-5-5-5-5-5-5-5-5-5-5-5-3--5-5-5-5-5-5-5-5--||
A|--0-0-0-0-0-0-0-0-5-5-5-5-5-5-5-5-3-3-3-3-3-3----3-3-3-3-3-3-3-3--||
E|------------------3-3-3-3-3-3-3-3---------------------------------||
  ..Angeles..     ..burning..

Repeat Intro
Repeat Chorus
Repeat Verse


E|--------------------------------------------------------||
B|--------------------------------------------------------||
G|--2------------------------------------------2----------||
D|--2-x16-----5----------3---------5-----------2-x16------||
A|--0---------5-x16------3-x8------5-x8--------0----------||
E|------------3----------1---------3----------------------||
  ..reads.. ..days.. Jacaranda.. ..blowing.. ..haze..

E|--------------------------------------------------------------------||
B|--------------------------------------------------------------------||
G|--5----------------------2------------------2-----------------------||
D|--5-x8---------5---------2-x8-----3---------2-x16--------5----------||
A|--3------------5-x8------0--------3-x8------0------------5----------||
E|---------------3------------------1----------------------3----------||
  ..question.. ..curse.. ..hell.. ..worse.. ..stunning.. ..running..

Solo

E|--------------------------------3/5-5-5-5h8-8-8-8/10-----||
B|-----------------6/8-8-8-8h10p8--------------------------||
G|--7h9-9-9-9h10-9-----------------------------------------||
D|---------------------------------------------------------||
A|---------------------------------------------------------||
E|---------------------------------------------------------||

E|--10h12-12-12-12p10 10-10\8-8\5-5\3--3h5-5-5-5-----------||
B|-----------------------------------------------5--3-5-3--||
G|---------------------------------------------------------||
D|---------------------------------------------------------||
A|---------------------------------------------------------||
E|---------------------------------------------------------||

E|----------8~----12\10~----15~----------------------------||
B|--3h5p3--------------------------------------------------||
G|---------------------------------------------------------||
D|---------------------------------------------------------||
A|---------------------------------------------------------||
E|---------------------------------------------------------||

Repeat Chorus
Repeat Intro
  development and support by
dmitry ivanov