rock
 
|tablatures   |lyrics   |discussion forums   |more tabs @ XGuitar.com

Bad Religion tabs

Materialist guitar tab

Band: Bad Religion
Song: Materialist
Tabbed: Mark (armatagejaded@yahoo.com)
Notes: again, pretty straight forward.
Intro:
e|------------------------------------------------------|
B|------------------------------------------------------|
G|------------------------------------------------------|
D|--------------9------------9-----------9--------------|
A|--999/10/9-9997-999/10/9-9997-999/10/9-9997--999/10/9-|
E|--777/-8/7-7777-777/-8/7-7777-777/-8/7-7777--777/-8/7-|

Verse

e|--------------------------------------------------------------------|
B|--------------------------------------------------------------------|
G|-7777------9999---------------77777777------7777--------------------|
D|-7777-7777-9999-4444-55555555-77777777-5555-7777-7777--999--999-999-|
A|-5555-7777-7777-4444-55555555-55555555-5555-5555-7777~-999--999-999-|
E|------5555------2222-33333333----------3333------5555~-777--777-777-|

Pre-Chorus: Guitar 2

e|--------------------------------------------------------------------|
B|--------------------------------------------------------------------|
G|--------------------------------------------------------------------|
D|-9999-5555-77777777-9999-5555-77777777-9999-5555-77777777-9---------|
A|-9999-5555-77777777-9999-5555 77777777-9999-5555-77777777/7---------|
E|-7777-3333-55555555-7777-3333-55555555-7777-3333-55555555/7---------|

Pre-Chorus: Guitar 1

e|-70-70-70-70-70-70-70-----------------------------------------------|
B|-00-00-00-00-00-00-00--x3-------------------------------------------|
G|-99-99-99-99-99-99-99-----------------------------------------------|
D|--------------------------------------------------------------------|
A|--------------------------------------------------------------------|
E|--------------------------------------------------------------------|

Chorus: Guitar 2

e|--------------------------------------------------------------------|
B|--------------------------------------------------------------------|
G|--------------------------------------------------------------------|
D|---------------------------------------7777---------------77--------|
A|-999/10/9-997-999/10/9-997-999/10/9-99-5555-7777-55555555-55-777777-|
E|-777/-8/7-777-777/-8/7-777-777/-8/7-77------5555-33333333----555555-|

Chorus: Guitar 1

e|--------------------------------------------------------------------|
B|--------------------------------------------------------10-12~-1514~|
G|------8h9r8---------------------------8h9~11-9r8h11r9h11------------|
D|-99~10-----9/10-99~10/7h9r7/10--99~10-------------------------------|
A|--------------------------------------------------------------------|
E|--------------------------------------------------------------------|





Verse 2
e|------------------------------------------------------------|
B|------------------------------------------------------------|
G|-7777------9999-11111111-7777------9999-4444----------------|
D|-7777-7777-9999-11111111-7777-7777-9999-4444-55555555-------|
A|-5555-7777-7777--9-9-9-9-5555-7777-7777-2222-55555555-------|
E|------5555--------------------5555-----------33333333-------|


e|-----------------------------|
B|-----------------------------|
G|--77777777------7777---------|
D|--77777777-5555-7777---------|
A|--55555555-5555-5555---------|
E|-----------3333--------------|


e|--------------------------|
B|--------------------------|
G|--------------------------|
D|-7777---999-999-999-999---|
A|-7777~--999-999-999-997---|
E|-5555~--777-777-777-777---|

Bridge

e|-------------------------|
B|-------------------------|
G|-------------------------|
D|-9999-5555-77777777------|
A|-9999-5555-77777777------|
E|-7777-3333-55555555------|
  ...pm..............

Outro

e|--------------------------------------------------------------|
B|--------------------------------------------------------------|
G|-----------------------------------------7777-----------------|
D|--999-10-9-99--999-10-9-99--999-10-9-99--7777-7777-9-99-10-9--|
A|--999/10/9-997-999/10/9-997-999/10/9-997-5555-7777-9-99/10/9--|
E|--777/-8/7-777-777/-8/7-777-777/-8/7-777------5555-7-77/-8/7--|

Outro Lead
e|---------------------------------------------------------------|
B|---------------------------------------------------------------|
G|-------8h9r8--------------------------8h9r8----8h11r9h11r9/8~--|
D|--99~10-----9/10-99~10/7h9r7/10-99~10------9910----------------|
A|---------------------------------------------------------------|
E|---------------------------------------------------------------|
  development and support by
dmitry ivanov