rock
 
|tablatures   |lyrics   |discussion forums   |more tabs @ XGuitar.com

Bad Religion tabs

Operation Rescue bass tab

Artist: Bad Religion
Song:   Operation Rescue
Album:  Tested

Tuning: Standart (E A D G)

Tabbed by R4Z0R


~ - let ring


Verse/Bridge

G|-----------|  the last one |------------|
D|-----------|               |------------|
A|2-22-5-4-0-|               |2-2-0-2-2-2-|
E|-----------|               |------------|


Prechorus

G|---------| the last one |---------|--------|--------|
D|---------|              |---------|--------|--------|
A|2----5-0-|              |2----5-5-|77777777|--------|
E|---------|              |---------|--------|33335555|


Chorus

G|---------------------------|------------------------------|
D|---------------------------|------------------------------|
A|2-22-2---------2-22--------|------------------------5-----|
E|-------3-3-3-3------5-3-5--|3-3-3-3-5-5-5-5-3-3-3-3----5--|


Guitar Solo

G|---------------------------|
D|---------------------------|
A|2-22-2---------2-22--------|
E|-------3-3-3-3------5-3-5--|


Last Chorus

G|---------|---------|---------|---------|------|
D|---------|---------|---------|---------|------|
A|2----5-5-|2--------|2----5-5-|2--------|------|
E|---------|-----3-5-|---------|-----3---|5~----|

G|---------|---------|---------|---------|
D|---------|---7-----|---------|---------|
A|---------|-----7---|------5--|0--2~----|
E|3~-----4-|5------5-|3~-------|---------|



Easy Bassline! Great Song!
  development and support by
dmitry ivanov