rock
 
|tablatures   |lyrics   |discussion forums   |more tabs @ XGuitar.com

Bad Religion tabs

Operation Rescue guitar tab

Operation Rescue
Transcription by Ryan, d95mr@causeway.infc.ulst.ac.uk.

Yeah, It's probably wrong, but it sounds okay to me!
Mail me if you've got a better version.

*** Song Structure ***
Intro Pre-Chorus
Riff A1 (x3) Riff B
Riff A2 Riff C
Riff D
Verse 1
Riff A1 (x7) Chorus
Riff A2 Riff E (x4)

Pre-Chorus Solo
Riff B (x3) Riff E (x3)
Riff C Riff F
Riff D Riff G

Chorus Outro
Riff E (x4) Riff H
Riff A1 (x3) Riff A1 (x3)
Riff A2 Riff I

Verse 2
Riff A1 (x7)
Riff A2

*** Riffs ***
Riff A1 End Riff A1 Riff A2 End Riff A2
|---------------------------------| |----------------------------------|
|---------------------------------| |----------------------------------|
|-7---7-7-7---10--9-------5-------| |-7---7-7-7---5---7----------------|
|-7---7-7-7---10--9-------5-------| |-7---7-7-7---5---7----------------|
|-5---5-5-5---8---7-------3-------| |-5---5-5-5---3---5----------------|
|---------------------------------| |----------------------------------|
D5 F5 E5 C5 D5 C5 D5

Riff B End Riff B Riff C End Riff C
|---------------------------------| |----------------------------------|
|-8-----------------------6---6---| |-8---8---8---8---8---8---8---8----|
|-7-----------------------5---5---| |-7---7---7---7---7---7---7---7----|
|-5-----------------------3---3---| |-5---5---5---5---5---5---5---5----|
|---------------------------------| |----------------------------------|
|---------------------------------| |----------------------------------|
G5 F5 G5
(The G's and F's may be doubled an octave lower)

Riff D End Riff D
|---------------------------------|
|---------------------------------|
|-3---3---3---3---5---5---5---5---|
|-3---3---3---3---5---5---5---5---|
|-1---1---1---1---3---3---3---3---|
|---------------------------------|
A#5 C5

Riff E End Riff E
|---------------------------------|---------------------------------|
|---------------------------------|---------------------------------|
|-7---7-7---7-7-------------------|-7---7-7---7-7---10--------------|
|-7---7-7---7-7---8---8-8---8-8---|-7---7-7---7-7---10------10------|
|-5---5-5---5-5---8---8-8---8-8---|-5---5-5---5-5---8-------10------|
|-----------------6---6-6---6-6---|-------------------------8-------|
D5 A#5 D5 F5 C5

Riff F End Riff F
|---------------------------------|---------------------------------|
|---------------------------------|---------------------------------|
|-7-------------------------------|-7---------------10--------------|
|-7---------------8-------8-------|-7---------------10------10------|
|-5---------------8-------8-------|-5---------------8-------10------|
|-----------------6-------6-------|-------------------------8-------|
D5 A#5 D5 F5 C5

Riff G End Riff G
|---------------------------------|---------------------------------|
|---------------------------------|---------------------------------|
|---------------------------------|---------------------------------|
|-(10)----------------------------|-(10)----------------------------|
|-(10)----------------------------|-(10)----------------------------|
|-(8)-----------------------------|-(8)-----------------------------|
(C5)

Riff H
|---------------------------------|---------------------------------|
|---------------------------------|---------------------------------|
|---------------------------------|---------------------------------|
|-8--------------(8)--------------|-10-------------(10)-------------|
|-8--------------(6)--------------|-10-------------(10)-------------|
|-6--------------(6)--------------|-8--------------(8)--------------|
A#5 C5

|---------------------------------|---------------------------------|
|---------------------------------|---------------------------------|
|---------------------------------|-10-----(10)---------------------|
|-8--------------(8)--------------|-10-----(10)-----10-----(10)-----|
|-8--------------(8)--------------|-8------(8)------10-----(10)-----|
|-6--------------(6)--------------|-----------------8------(8)------|
A#5 F5 C5

End Riff H
|---------------------------------|
|---------------------------------|
|---------------------------------|
|-12-------------(12)-------------|
|-12-------------(12)-------------|
|-10-------------(10)-------------|
D5

Riff I End Riff I
|---------------------------------||
|---------------------------------||
|-7-\-----------------------------||
|-7-\-----------------------------||
|-5-\-----------------------------||
|---------------------------------||
D5

*** Lyrics ***
Verse 1
It's an S.O.S. - sent out telepatheticly,
Signs of our distress don't allow complacency,
We need restoration now of our integrity,
And a drastic bold reminder of our morality.

Pre-Chorus
The rectifying troop is here,
The ones we've needed all these years,
To stop the heinous wrongdoings,
And verify our moral benevolence as a people.

Chorus
Operation,
Operation Rescue,
They're here to right our fall,
They've heard our troubled call,
Operation,
Operation Rescue,
You wonder where they come from,
But I just wonder why they're here at all.

Ya Ya, Ya Ya, Ya.
Ya Ya, Ya Ya, Ya.
Ya Ya, Ya Ya, Ya.
Ya Ya, Ya Ya.

Verse 2
Life ever after is what they're in business for,
See them brandish the key to our kingdom's door,
It's pervasive, A part of, A part of you and me,
But not overwhelming as they wish it to be.

Pre-Chorus
If no one believed in fairy tales,
There's nothing they could do but fail,
Yet everywhere we look someone is trying
To reassure our moral benevolence as a people.

Chorus
Operation,
Operation Rescue,
They're here to right our fall,
They've heard someones troubled call,
Operation,
Operation Rescue,
You wonder where they come from,
But I just wonder what compels them all.

Outro
Operation,
Operation Rescue,
Operation,
Operation Rescue...

You may wonder where they come from,
But I just wonder what compels them all.

Ya Ya, Ya Ya, Ya.
Ya Ya, Ya Ya, Ya.
Ya Ya, Ya Ya, Ya.
  development and support by
dmitry ivanov