rock
 
|tablatures   |lyrics   |discussion forums   |more tabs @ XGuitar.com

Bad Religion tabs

Overture guitar tab

This my first tab so please rate it. :D thank you in advance.

Artist: Bad Religion
Song: Overture
Album: The Empire Strikes First
Tuning: Standard  eBGDAE

This is a really short and easy song to play. It\\'s an awesome song despite how short it is.
i am almost positive that it is 100% perfect. So... enjoy. :D

e|-----------------------------|
B|-----------------------------|
G|-7~~-----------7~~-----------|
D|-7~~-----------7~~-----------|
A|-5~~-4~-5-0-1~-5~~-----------|
E|-----------------------------|

e|-----------------------------|
B|-----------------------------|
G|-7~~-----------7~~-----------|
D|-7~~-----------7~~-----------|
A|-5~~-4~-5-0-1~-5~~-----------|
E|-----------------------------|

e|-----------------------------|
B|-----------------------------|
G|-7~~-----------7~~-----------|
D|-7~~-----------7~~-----------|
A|-5~~-4~-5-0-1~-5~~-----------|
E|-----------------------------|

e|-----|
B|-----|
G|-7~~-|
D|-7~~-|
A|-5~~-|
E|-----|

See... It really is short and easy. :D
  development and support by
dmitry ivanov