rock
 
|tablatures   |lyrics   |discussion forums   |more tabs @ XGuitar.com

Bad Religion tabs

Prove It bass tab

Artist: Bad Religion
Song: Prove It
Album: Process Of Belief
Instrument: Bass
Tabbed by: Spidey255

Intro
G|----------|
D|----------|
A|-7-8-10-8-|
E|----------|

Verse
G|-------------------------------|-----------|------------|
D|-------------------------------|-----------|------------|
A|-0-0-0-0-8-7-8-0-0-0-0-3-3-3-3-|-5>-7-8>-7-|-7>-0-3-0---|
E|-------------------------------|-----------|----------1-|

Chorus
G|------------------------------------|------------------------|
D|------------------------------------|------------------------|
A|-88-88-33-33-5555-7777--------------|-555555-3-5-77777-5-3-2-|
E|-----------------------5555-3-555-3-|------------------------|

No proof Necessary
G|------------------------|
D|------------------------|
A|-0000-3333-5555-7-5-3-2-|
E|------------------------|

Ending
G|-------------------------------------------|
D|-------------------------------------------|
A|----------3333-7-5-3-2---------------------|
E|-11111111--------------5-5-3-5-5-3-5-5-3-5-|
  development and support by
dmitry ivanov