rock
 
|tablatures   |lyrics   |discussion forums   |more tabs @ XGuitar.com

Bad Religion tabs

Prove It guitar tab

Questions, comments, concerns, errors Sk8SkaNJ@optonline.net

Intro
e|-----------|
B|-----------|
G|-9-9-9-99--|
D|-9-9-9-99--| x3
A|-7-7-7-77--|
E|-----------|

Verse
e|--------------------------------------|
B|--------------------------------------|
G|---------10-9-10----------------------|
D|-7-7-7-7-10-9-10-7-7-7-7-10-10-10-10--| x2
A|-7-7-7-7-8--7-8--7-7-7-7-10-10-10-10--|
E|-5-5-5-5---------5-5-5-5-8--8--8--8---|

e|-----------------------------------|
B|-----------------------------------|
G|-7-7-7-7-7-7-7-7-1010101010101010--|
D|-7-7-7-7-7-7-7-7-1010101010101010--|
A|-5-5-5-5-5-5-5-5-8-8-8-8-8-8-8-8---|
E|-----------------------------------|

e|--------------------------------------|
B|--------------------------------------|
G|---------10-9-10----------------------|
D|-7-7-7-7-10-9-10-7-7-7-7-10-10-10-10--|
A|-7-7-7-7-8--7-8--7-7-7-7-10-10-10-10--|
E|-5-5-5-5---------5-5-5-5-8--8--8--8---|

e|---------------------------------------------------------------|
B|--------------------------------------------------8-8-8-8-8-8--|
G|-7-7-7-7-7-7-7-7-1010101010101010-9-9-9-9-9-9-9-9-7-7-7-7-7-7--|
D|-7-7-7-7-7-7-7-7-1010101010101010-9-9-9-9-9-9-9-9-6-6-6-6-6-6--|
A|-5-5-5-5-5-5-5-5-8-8-8-8-8-8-8-8--7-7-7-7-7-7-7-7-7-7-7-7-7-7--|
E|---------------------------------------------------------------|

Verse
e|--------------------------------------|
B|--------------------------------------|
G|---------10-9-10----------------------|
D|-7-7-7-7-10-9-10-7-7-7-7-10-10-10-10--| x3
A|-7-7-7-7-8--7-8--7-7-7-7-10-10-10-10--|
E|-5-5-5-5---------5-5-5-5-8--8--8--8---|

e|-----------------------------------|
B|-----------------------------------|
G|-7-7-7-7-7-7-7-7-1010101010101010--|
D|-7-7-7-7-7-7-7-7-1010101010101010--|
A|-5-5-5-5-5-5-5-5-8-8-8-8-8-8-8-8---|
E|-----------------------------------|

e|--------------------------------------|
B|--------------------------------------|
G|---------10-9-10----------------------|
D|-7-7-7-7-10-9-10-7-7-7-7-10-10-10-10--|
A|-7-7-7-7-8--7-8--7-7-7-7-10-10-10-10--|
E|-5-5-5-5---------5-5-5-5-8--8--8--8---|

e|---------------------------------------------------------------|
B|--------------------------------------------------8-8-8-8-8-8--|
G|-7-7-7-7-7-7-7-7-1010101010101010-9-9-9-9-9-9-9-9-7-7-7-7-7-7--|
D|-7-7-7-7-7-7-7-7-1010101010101010-9-9-9-9-9-9-9-9-6-6-6-6-6-6--|
A|-5-5-5-5-5-5-5-5-8-8-8-8-8-8-8-8--7-7-7-7-7-7-7-7-7-7-7-7-7-7--|
E|---------------------------------------------------------------|

Chorus
e|-------------------------------------------------------|
B|-------------------------------------------------------|
G|-1010-1010------------7-7-7-7-9-9-9-9------------------|
D|-1010-1010-1010-1010--7-7-7-7-9-9-9-9-7-7-7-7-7-7-7-7--|
A|--8-8-8-8--1010-1010--5-5-5-5-7-7-7-7-7-7-7-7-7-7-7-7--|
E|------------8-8--8-8------------------5-5-5-5-5-5-5-5--|

e|-------------------------------------------------------|
B|-------------------------------------------------------|
G|-1010-1010------------7-7-7-7-7-7-7-7-9-9-9-9-9-9-9-9--|
D|-1010-1010-1010-1010--7-7-7-7-7-7-7-7-9-9-9-9-9-9-9-9--|
A|--8-8-8-8--1010-1010--5-5-5-5-5-5-5-5-7-7-7-7-7-7-7-7--|
E|-----------8-8--8-8------------------------------------|

Outro
e|----------------------------------|
B|----------------------------------|
G|-----------------7-7-7-7-9-9-9-9--|
D|-7-7-7-710101010-7-7-7-7-9-9-9-9--| x3
A|-7-7-7-710101010-5-5-5-5-7-7-7-7--|
E|-5-5-5-5-8-8-8-8------------------|

e|----------------------------------|    |--------------|
B|----------------------------------|    |--------------|
G|-----------------5-5-5-5----------|    |--------------|
D|-3-3-3-3-3-3-3-3-5-5-5-5-5-5-5-5--| x3 |-7-7-x-x-x-x--| x3
A|-3-3-3-3-3-3-3-3-3-3-3-3-5-5-5-5--|    |-7-7-x-x-x-x--|
E|-1-1-1-1-1-1-1-1---------3-3-3-3--|    |-5-5-x-x-x-x--|
  development and support by
dmitry ivanov